:: Home > Tabs > G > Ghoti Hook > Acquiesce

Ghoti Hook - Acquiesce


This tab has not yet been rated for accuracy.To rate this tab, please visit the version of this guitar tab on it's home site, Christian Guitar Resources.

Click here for a plain text version of this song (for better printing)




#----------------------------------PLEASE NOTE---------------------------------#
#This file is the author's own work and represents their interpretation of the #
#song. You may only use this file for private study, scholarship, or research. #
#------------------------------------------------------------------------------#


+------------------------------------------+
\  Artist     :  Ghoti Hook                 \
/  Song       :  Acquiesce                  /
\  Instrument :  Guitar                     \
/  Tabbed by  :  Mike!    /
\___________________________________________\

  +---+---+---+---+---+---+
  | A | D | C | G | A#| D*|
  +---+---+---+---+---+---+
e-| - | - | - | - | - | - |
B-| - | - | - | - | - | - |
G-| - | - | 5 | - | - | 7 |        *Note : Drop D tuning
D-| 7 | 0 | 5 | 5 | 8 | 7 |
A-| 7 | 0 | 3 | 5 | 8 | 5 |
D-| 7 | 0 | - | 5 | 8 | - |
  +---+---+---+---+---+---+

Intro: A D C D G A# D

Guitar 1:
e-|-------------------------------------------------------------------|
B-|-6-----6-----6---5-----5-----5---5-----5-----5---8-----8-----8-----|
G-|---7-7---7-7---7---5-5---5-5---5---5-5---5-5---5---9-9---9-9---9-9-| \ x2
D-|-------------------------------------------------------------------| /
A-|-------------------------------------------------------------------|
D-|-------------------------------------------------------------------|

e-|-----------------------------------------------------------------|
B-|-6-----6-----6---5-----5-----5---5-----5-----5---5-----6-----8---|
G-|---7-7---7-7---7---5-5---5-5---5---5-5---5-5---5---5-5---5-5---5-|
D-|-----------------------------------------------------------------|
A-|-----------------------------------------------------------------|
D-|-----------------------------------------------------------------|
   D  <-- (Guitar 2)
e-|-----------------------------------------------------------------|
B-|-6-----6-----6---6-----6-----6---6-----6-----6---6-----6-----6---|
G-|---7-7---7-7---7---7-7---7-7---7---7-7---7-7---7---7-7---7-7---7-|
D-|-----------------------------------------------------------------|
A-|-----------------------------------------------------------------|
D-|-----------------------------------------------------------------|
   A# <-- (Guitar 2)


Guitar 1:
e-|-----------------------------------------------------------------|
B-|-6-6-6-6-6-6-6-6-5-5-5-5-5-5-5-5-5-5-5-5-5-5-5-5-8-8-8-8-8-8-8-8-|
G-|-7-7-7-7-7-7-7-7-5-5-5-5-5-5-5-5-5-5-5-5-5-5-5-5-9-9-9-9-9-9-9-9-| \ x3
D-|-----------------------------------------------------------------| /
A-|-----------------------------------------------------------------|
D-|-----------------------------------------------------------------|
Guitar 2: D* C

Guitar 1:
e-|---------5-|
B-|-6-5-6-5-6-|
G-|-7-5-7-5---|
D-|-----------|
A-|-----------|
D-|-----------|
Guitar 2: A# (x4)  D*

Even now your eyes are courting sleep
I'll stay by your side as I have always been
D*                                                A#
Sleep tonight, may your dreams reveal my love for you
   A#              A#         A#                A D C D G A#
Beyond what I must do, do you know my plans for you

e-|---------|
B-|-6-5-6-5-| \
G-|-7-5-7-5-|  \  Repeat through lyrics
D-|---------|  /
A-|---------| /
D-|---------|
D*            C
To separate myself from where my treasure lies
D*                          C
Then naked in this cold and lonely unforgiving life
   D*                     C                              A#        A#
Be stripped away of all delusions of the man I'd like to be at the moment
     D*           C                            D*
I am broken parts sure of only weaknesses with nothing left to show
     C
No illusions left to hide behind
D*                          C                    A#
Burning clean has been both agony and absolute release
      A#                A#          A#          A D C D G A# A D C D G A#
Can I hope to pass this test, is my destiny the wilderness

    A       D       C     D G
The hardest part of letting go
   A        D     C  D    G
Is trusting you with everything
   A  D   C    D  G       A  D     C   D   G        A#
In laying bare my soul is truly seeing who I really am
A#             A#       A#              D
Father what is man that You are mindful of him

e-|-------------------------|
B-|-------------------------| \
G-|-------------------------|  \  Repeat through lyrics
D-|-3-3-3-2-2-2-2-2-2-5-5-5-|  /
A-|-------------------------| /
D-|-------------------------|
Can I pass this test, is my destiny this wilderness

Guitar 1:
e-|---------5-|
B-|-6-5-6-5-6-|
G-|-7-5-7-5---|
D-|-----------|
A-|-----------|
D-|-----------|
Guitar 2: A# (x4)  D*

e-|---------|
B-|-6-5-6-5-| \
G-|-7-5-7-5-|  \  Repeat through lyrics
D-|---------|  /
A-|---------| /
D-|---------|
To stand alone against a life of wretchedness
Impossible to hope and so I plead
Your graciousness show me your glory 
May my life reflect your presence
A#  A#    A#    A#             A D C D G A# A D C D G A#
And never again find myself in anything less

    A       D       C     D G
The hardest part of letting go
   A        D     C  D    G
Is trusting you with everything
   A  D   C    D  G       A  D     C   D   G        A#
In laying bare my soul is truly seeing who I really am
Guitar 1:              \
e-|---------5-|         \
B-|-6-5-6-5-6-|          \
G-|-7-5-7-5---|           \  Repeat through lyrics
D-|-----------|           /
A-|-----------|          /
D-|-----------|         /
Guitar 2: A# (x4)  D*  /
Father what is man that You are mindful of him



Comments about this tab

To add a comment for this tab, please visit the version of this guitar tab on it's home site, Christian Guitar Resources.



© 2005 MickMel - All Right Reserved - Privacy Statement