:: Home > Tabs > T > Third Day > I See Love

Third Day - I See Love


This tab has been rated a 4.63 out of 5 for accuracy.
(8 votes)
To rate this tab, please visit the version of this guitar tab on it's home site, Christian Guitar Resources.

Click here for a plain text version of this song (for better printing)




#----------------------------------PLEASE NOTE---------------------------------#
#This file is the author's own work and represents their interpretation of the #
#song. You may only use this file for private study, scholarship, or research. #
#------------------------------------------------------------------------------#


-------------------------------------------------------------------------------
      I SEE LOVE - Third Day, MercyMe, Steven Curtis Chapman
-------------------------------------------------------------------------------

By:  Gary(garyhale@spu.edu)

TUNE DOWN 1/2 STEP!!!

b   - bend
r   - release
^   - hold the bend and pick it
p   - pull off
/ \ - slide
v   - vibrato
%   - bend to half-tone
~   - let ring out


GUITAR 1'S PARTS:
-----------------
Chords Used:
    G5  F5  G#5   B5   A5  C5   E5   Am    F  Em   C   G   Gsus2 Fsus2 D#sus2
Eb|----------------------------------0-----1---0---0---3----10-----8----6----|
Bb|----------------------------------1-----1---0---1---3----10-----8----6----|
Gb|----------------4--------5--------2-----2---0---0---0----12----10----8--3-|
Db|--5---3----6----4----7---5----2---2-----3---2---2---0----12----10----8--3-|
Ab|--5---3----6----2----7---3----2---0-----3---2---3---2----10-----8----6--1-|
Eb|--3---1----4---------5--------0---------1---0-------3-------------------^-|
                                                                          A#5
Intro:  G5 - F5
        G5 - G#5 - B5
        G5 - F5
  
Verse:  Am - F - Am - Em
        Am - F - C - Em
        F - Am - Em - F
        Am - F - G

Chorus:  C5 - G5 - A5 - F5
         C5 - G5 - A5 - F5
         A5 - F5

Repeat Verse

2nd Chorus:  C5 - G5 - A5 - F5 (2x)

Bridge:  Gsus2 - Fsus2
         Gsus2 - D#sus2 - Fsus2
         G5 - F5 - G5 - A5
         G5 - F5 - A#5

3rd Chorus:  C5 - G5 - A5 - F5 (4x)

Outro:  A5 - G5 - F5
        A5 - G5 - F5
        Am - G - F

GUITAR 2'S PARTS:
-----------------
Intro:
Eb|--------------------------------------------------------------------------|
Bb|-12v~---12-13--13b15r13--13b15r13~--12v~---12b%---15^-15^-15^-15^-15^-12v~|
Gb|--------------------------------------------------------------------------|
Db|--------------------------------------------------------------------------|
Ab|--------------------------------------------------------------------------|
Eb|--------------------------------------------------------------------------|

Intro Cont'd:
Eb|--------------|
Bb|-------8v~----|
Gb|-7~/12--------|
Db|--------------|
Ab|--------------|
Eb|--------------|

Verse:  (Comes in on 2nd measure)
Eb|------------------10p8-----7------------7-8~---------7-8~--------7--------|
Bb|-10-------10-----------------------10-----------10-----------8------------|
Gb|----9~-------9~--------9~----9~--9----9-------9----9-------9---9---9~-----|
Db|--------------------------------------------------------------------------|
Ab|--------------------------------------------------------------------------|
Eb|--------------------------------------------------------------------------|

Verse Cont'd:
Eb|---------10--8~---------7-8~---------7-8~--7p5---7p5---7p5-10---10---10---|
Bb|---10--------------10-----------10----------------------------8----8----8-|
Gb|10----10---------9----9-------9----9-----------7-----7--------------------|
Db|--------------------------------------------------------------------------|
Ab|--------------------------------------------------------------------------|
Eb|--------------------------------------------------------------------------|

Chorus:  (Same as guitar 1)

2nd Verse:  (6x)        2nd Verse Cont'd:
Eb|-7------7------7----|-10p8---10p8---10---7-----7-----7--------------------|
Bb|---10-----10-----10-|----------------------8-----8-----8------------------|
Gb|------9------9------|------9------9----9-----9-----9----------------------|
Db|--------------------|-----------------------------------------------------|
Ab|--------------------|-----------------------------------------------------|
Eb|--------------------|-----------------------------------------------------|

2nd Verse Cont'd:
Eb|--------7-8~---------7-8~--7p5---7p5---7p5-10---10---10-------------------|
Bb|---10-----------10----------------------------8----8----8-----------------|
Gb|-9----9-------9----9-----------7-----7------------------------------------|
Db|--------------------------------------------------------------------------|
Ab|--------------------------------------------------------------------------|
Eb|--------------------------------------------------------------------------|

Bridge:  (Come in on 2nd measure)
Eb|------------------------------------------------------------------15b17~~-|
Bb|-12v~---13b15~~~---12v~---10v~---12v~---13b15~~~~---15v~---15v~-----------|
Gb|--------------------------------------------------------------------------|
Db|--------------------------------------------------------------------------|
Ab|--------------------------------------------------------------------------|
Eb|--------------------------------------------------------------------------|

Chorus:  (Same as guitar 1)

Outro:
Eb|--------------------------------------------------------------------------|
Bb|-10v~--12-13-13/15v~---15b17~~--15^-15^-15^-15^rv~~~--13-12--8v-8/10v~----|
Gb|--------------------------------------------------------------------------|
Db|--------------------------------------------------------------------------|
Ab|--------------------------------------------------------------------------|
Eb|--------------------------------------------------------------------------|

Outro Cont'd:
Eb|----------------15b17~~~--15^-15^-15^-15^-15^-15^r~~~---------------------|
Bb|-12-13-13/15v~----------------------------------------15b17v~~~~----------|
Gb|--------------------------------------------------------------------------|
Db|--------------------------------------------------------------------------|
Ab|--------------------------------------------------------------------------|
Eb|--------------------------------------------------------------------------|

For more tabs, visit http://www.geocities.com/ggtabs07
Sorry if it's hard to follow the lead guitar but it's really hard to type out
how the bends are because they are all really different at certain times!
E-mail me if you have any questions!
===============================================================================
WITHOUT CAPO
===============================================================================

Intro:  F#  E  F#  E  F# E

VERSE 1
G#m             E                    B                     D#m
G#m             E                    B                     D#m
E               G#m                 D#m                   E
G#m             E                        F#

CHORUS
                B                       F#
             G#m                E
                  B                                  F#
            G#m           E                   B       E         G#m

VERSE 2
G#m             E                B                D#m
G#m             E                               B                 D#m
E                   G#m           D#m             E
G#m             E                     F#


CHORUS 2
              B                            #
             G#m           E
                  B                        F#
            G#m             E              F#

F#          E             F#          G       A              F#



BRIDGE
       G#m                   F#               G#m                      F#       
            E                             A           
                B                        F#
             G#m                    E
             B                            F#

            G#m                     E                              B

ENDING

          F#                                                       B

          F#                                                       B

          F#                                                       B

E                              B

           

G#m                 F#                       E                  




Comments about this tab

4christ - 2004-10-31
on the intro the last 8v shuold be a 10
Crossroads_drum - 2004-12-06
This is a great song and pretty sure you hit the nail right on the heads as far as chords.........however I don't think that the song is lowered a half-step......I think it is actually capo 2.....otherwise.......great job
matt j t - 2004-12-14
this tab is sweet!!!

i love this song!!!

i voted 5.0!!!

rock on dude!!!
IncuThrice07 - 2004-12-16
Hey, I saw them perform it on Jay Leno and realized that it is tuned down one half step by how they played it live...it was very apparent by watching Chapman play the acoustic guitar. But you never know, they may just do it like that live so you could be right.
sixstringes777 - 2004-12-31
this song is awsome
sixstringes777 - 2004-12-31
what does
Eb
Bb
Gb
Db
Ab
Eb
mean?????
dan r - 2004-12-31
It means "TUNE DOWN 1/2 STEP!!!"
sixstringes777 - 2005-01-01
thanks
Picking it up - 2005-02-03
Great song. I am new to the "5" chords. Any advice on the best use of them?
jsoccer - 2005-02-28
The "5" chords are power chords. Use them almost all the time in rock songs.
What they do is take out high pitched sound of the two or three bottom strings.
jsoccer - 2005-08-18
perfect tab by the way

To add a comment for this tab, please visit the version of this guitar tab on it's home site, Christian Guitar Resources.



© 2005 MickMel - All Right Reserved - Privacy Statement