:: Home > Tabs > S > Sanctus Real > Closer

Sanctus Real - Closer


This tab has been rated a 3.83 out of 5 for accuracy.
(6 votes)
To rate this tab, please visit the version of this guitar tab on it's home site, Christian Guitar Resources.

Click here for a plain text version of this song (for better printing)




#----------------------------------PLEASE NOTE---------------------------------#
#This file is the author's own work and represents their interpretation of the #
#song. You may only use this file for private study, scholarship, or research. #
#------------------------------------------------------------------------------#


The other one had poor verse chords. I believe this is more correct.

 2004 Birdwing Music ASCAP
Tabbed by James
Written by Rohman/Hammitt

Tune down half step

VERSE

e--------------------------------
B--------------------------------
G-5-5-5-----------------5-7-7-7-7
D-5-5-5-5-5-5-5-5-2-2-2-5-7-7-7-7
A-3-3-3-5-5-5-5-5-2-2-2-3-5-5-5-5
E-------3-3-3-3-3-0-0-0----------

CHORUS

e-------------------------
B-------------------------
G-5-5-5-----------0----0--  x2
D-5-5-5-5-5-5---2-----4--4
A-3-3-3-5-5-5-3----3s5----
E-------3-3-3-------------

e----------------------------------------
B----------------------------------------
G-5-5------7-7-7-7-7-7-7-7-----0----0----
D-5-5--5-5-7-7-7-7-7-7-7-7---2-----4--4-5
A-3-3--5-5-5-5-5-5-5-5-5-5-3----3s5-----5
E------3-3------------------------------3

BRIDGE/ENDING

e-------10--3--------0--0
B-8--7--8---1--8--10-3--1
G-9--7--0---0--9--7--0--0
D-9--7--9---2--9--7--4--2
A-7--9--10--3--7--9--5--3
E------------------------



Comments about this tab

RcKn'Rll247 - 2004-09-15
Dude i tried this and it doesn't sound anything like what is on the cd...i think you have a few of the verse chords a little off :)!!but keep rockin on
jesuslova - 2004-12-17
maybe you didn't tune down first? w/e

found a little correction in the verse

e--------------------------------
B--------------------------------
G-5-5-5-4-4-4-4-4-4-4-4-5-7-7-7-7
D-5-5-5-5-5-5-5-5-2-2-2-5-7-7-7-7
A-3-3-3-5-5-5-5-5-2-2-2-3-5-5-5-5
E-------3-3-3-3-3-0-0-0----------

apart from that it's perfect!
thanks for tabbing it out
SRguitarfrk444 - 2005-02-12
here's the solo...its not hard, but its sounds awesome. half step down of course...(i dont have my guitar on me so it might be a little messed up but it should give you a good idea)

e----------------------------------------------------------------------------
B-12--12--12--12--13--13--12--12--12--12--12--12--10-8/15B(17)(17)(17)-15-15-
G---12--12--12-----12--12--12--12--12--12--12--12---------------------------12

e-14-15-17-17-15-15-17-19-17-17-15-17/19-20-20-20\19-19\17\15~----
B------------------
G------------------

thats it...not even hard...peace
kenny
mmggppmgp - 2005-09-01
this is another correction

BRIDGE/ENDING

e-------10--(3)--------0--0
B-8--7--8---(1)--8--10-3--1
G-9--7--0---(0)--9--7--0--0
D-9--7--9---(2)--9--7--4--2
A-7--9--10--(3)--7--9--5--3
E--------------------------

im afraid the chord in the parenthesis is wrong but i believe the bridge is
played like this

BRIDGE/ENDING

e-------10--7--------0--0
B-8--7--8---0--8--10-3--1
G-9--7--0---0--9--7--0--0
D-9--7--9---5--9--7--4--2
A-7--9--10--7--7--9--5--3
E------------------------
jsoccer - 2006-02-09
good, but wut about the chords that are playing during the lead guitar riff on the chorus

To add a comment for this tab, please visit the version of this guitar tab on it's home site, Christian Guitar Resources.



© 2005 MickMel - All Right Reserved - Privacy Statement