:: Home > Tabs > C > Camp, Jeremy > Trust in You

Jeremy Camp - Trust in You


This tab has been rated a 3.00 out of 5 for accuracy.
(4 votes)
To rate this tab, please visit the version of this guitar tab on it's home site, Christian Guitar Resources.

Click here for a plain text version of this song (for better printing)




#----------------------------------PLEASE NOTE---------------------------------#
#This file is the author's own work and represents their interpretation of the #
#song. You may only use this file for private study, scholarship, or research. #
#------------------------------------------------------------------------------#


-------------------------------------------------------------------------------
            TRUST IN YOU - Jeremy Camp
-------------------------------------------------------------------------------

By:  Gary(garyhale@spu.edu)

>   - strumming not defined
/ \ - slide
... - palm mute
~   - let ring out
x
x   - mute after strumming
x
h   - hammer on
v   - vibrato
p   - pull off
b   - bend
r   - release


Verse:   (Strumming not defined)
e|-7>--7>------------7>--7>-----------7>--7>-|-------------------------------|
B|-7>--7>------------7>--7>-----------7>--7>-|-------------------------------|
G|-9>--8>---9>--8>---9>--8>---9>--8>--9>--8>-|----9-9-9\x--------------------|
D|-9>--9>---9>--9>---9>--9>---9>--9>--9>--9>-|----9-9-9\x--------------------|
A|-7>--7>---x---x----0>--0>---x---x---7>--7>-|----7-7-7\x--------------------|
E|----------9>--9>------------7>--7>---------|-------------------------------|

Chorus:   (2x)
e|---------------------------------------------------------------------------|
B|5-5-5-5-7-7-7-7-7-7-5-5-5-5-7-7-7-7-7-7-5-5-5-5-4-4-4-4-4-4-5-5-5-5-4-4-4-4|
G|x-x-x-x-x-x-x-x-x-x-x-x-x-x-x-x-x-x-x-x-4-4-4-4-4-4-4-4-4-4-4-4-4-4-4-4-4-4|
D|6-6-6-6-6-6-6-6-6-6-6-6-6-6-6-6-6-6-6-6-4-4-4-4-4-4-4-4-4-4-4-4-4-4-4-4-4-4|
A|4-4-4-4-4-4-4-4-4-4-4-4-4-4-4-4-4-4-4-4-2-2-2-2-2-2-2-2-2-2-2-2-2-2-2-2-2-2|
E|---------------------------------------------------------------------------|

Chorus Cont'd:
e|-----|--2nd time around, end on:-------------------------------------------|
B|4-4--|----------5~-----5---4---7---5-5-----5---4---7---7-7-----------------|
G|4-4--|----------4~-----4-4-4-4-4-4-4-4-4-4-4-4-4-4-4-4-4-4-----------------|
D|4-4--|----------4~---------------------------------------------------------|
A|2-2--|----------2~---------------------------------------------------------|
E|-----|---------------------------------------------------------------------|
                           .   .   .     ...   .   .   .

Bridge:  (Repeat Verse)

Repeat Verse:  "When the darkness..."

Repeat Chorus

Solo:  (Repeat Verse)

Repeat Chorus

End on:
e|0~----------|
B|-0~---------|
G|--1~--------|
D|---2~-------|
A|----2~------|
E|-----0~-----|

GUITAR 2'S PARTS:
-----------------
1st Verse:  (Come in on 2nd time around)
e|-----7-----7--------7-----7------------------------------------------------|
B|---0-----0---0----0-----0---0----------------------------------------------|
G|-9-----8--------9-----8----------------------------------------------------|
D|---------------------------------------------------------------------------|
A|---------------------------------------------------------------------------|
E|---------------------------------------------------------------------------|

Chorus:    (2x)
e|---4>---0>--|-2nd time around end on:0-0-0-0-0-0-0-0-0-0-0-0-0-0-0-0-------|
B|---5>---0>--|----0~------------------0-0-0-0-0-0-0-0-0-0-0-0-0-0-0-0-------|
G|---6>---4>--|----4~------------------2-2-2-2-2-2-2-2-4-4-4-4-4-4-4-4-------|
D|---6>---4>--|----4~------------------2-2-2-2-2-2-2-2-4-4-4-4-4-4-4-4-------|
A|---4>---2>--|----2~------------------0-0-0-0-0-0-0-0-2-2-2-2-2-2-2-2-------|
E|------------|--------------------------------------------------------------|

Bridge:  (Repeat 1st Verse)

2nd Verse:    (Cool effect on this part)
e|-----0~-------0~------0~-------------0~------------------------------------|
B|-----0~-------0~------0~-------------0~------------------------------------|
G|-4~-------4~------4~------4/6~---9~----------------------------------------|
D|---------------------------------------------------------------------------|
A|---------------------------------------------------------------------------|
E|---------------------------------------------------------------------------|

2nd Verse Cont'd:  (Repeat 1st Verse)

Repeat Chorus

Solo:
e|----12-14----14/16v~------12-16-14b16r14--14b16r14--12~---11-12-11b12r11---|
B|----------12-----------12--------------------------------------------------|
G|---------------------------------------------------------------------------|
D|/14------------------------------------------------------------------------|
A|---------------------------------------------------------------------------|
E|---------------------------------------------------------------------------|

Solo Cont'd:
e|------------------------------------------7~--7----------------------------|
B|12-12~---10-12--------------7h9-7~--7-5/7-------7-7h9-7--------------------|
G|---------------11v~-------9-----------------------------9-9/11b13r11-------|
D|-----------------------/9--------------------------------------------------|
A|---------------------------------------------------------------------------|
E|---------------------------------------------------------------------------|
  ..

Solo Cont'd:
e|-------------------------------------|
B|-------------------------------------|
G|11b13r11-11h13-9v\-------------------|
D|-------------------------------------|
A|----------------------Fatty run------|
E|-------------------------------------|

Repeat Chorus

End on:
e|0~----------|
B|-0~---------|
G|--1~--------|
D|---2~-------|
A|----2~------|
E|-----0~-----|

Sorry the solo isn't all perfect.  I did my best.



Comments about this tab

jdiener - 2005-02-02
Great Tab thanks
SCguitar2 - 2005-05-28
your chorus is off...not right at all...sorry...
mikundi - 2006-04-11
Good tabs, more accurate than the other

To add a comment for this tab, please visit the version of this guitar tab on it's home site, Christian Guitar Resources.



© 2005 MickMel - All Right Reserved - Privacy Statement