:: Home > Tabs > T > Third Day > It's a Shame

Third Day - It's a Shame


This tab has been rated a 3.40 out of 5 for accuracy.
(5 votes)
To rate this tab, please visit the version of this guitar tab on it's home site, Christian Guitar Resources.

Click here for a plain text version of this song (for better printing)




#----------------------------------PLEASE NOTE---------------------------------#
#This file is the author's own work and represents their interpretation of the #
#song. You may only use this file for private study, scholarship, or research. #
#------------------------------------------------------------------------------#


It's A Shame-Wire
Third Day
(copyright) Brentwood-Benson Music Inc.
tabbed by: 3rdayleadguitar (mike carr)

I saw that there was only chords for this song so, and the intro is pretty 
simple but sounds great (and its the only thing i can tab out by ear so far)

e--7----9----11-----9----12-----7~~~~~~~~~~|
B----0~~--0~~---0~~---0~~---0~~------------|
G------------------------------------------|
D------------------------------------------| (x2)
A------------------------------------------|
E------------------------------------------|


this is my first tab so if its correct great, if not i'll do better next time

until he returns, michael



Comments about this tab

Duffy Mc Muffy - 2004-07-27
The end of the intro is not correct.

As far as I can see the intro is like this:

e|-7---9---11---9--------7-|
B|---0---0----0---0--5-7---|
G|-------------------------|
D|-------------------------|
A|-------------------------|
E|-------------------------|
logitech - 2004-09-14
I think you are both wrong. i think it is:

e|-7---9---10---9---12-----7--|
b|---7---7----7---7----5-7----|
g|----------------------------|
D|----------------------------|
A|----------------------------|
E|----------------------------|
Hethcox - 2004-10-17
I'm sure its really this:

E-7---9--7-----9--7-----7-
B---7--------7--------7---
G----------8--------9-----
D-------------------------
A-------------------------
E-------------------------
timid8r - 2004-10-21
Song is capo 4(G)

Intro goes like this. Tab is relative to capo.
||-----------7--------|-8---------||
||o-8---10-------10---|-----8----o||
||----7----7---7----7-|---7-------||
||--------------------|-----------||
||o-------------------|----------o||
||--------------------|-----------||

Hethcox - 2004-10-26
Relative to capo unlike previous post:
E--3---5--3------5--3-----3- |
B----3---------3--------3--- .|
G------------4--------5----- |
D--------------------------- .|
A--------------------------- |
E--------------------------- |
timid8r - 2004-11-01
Hethcox,

You've got some of the notes right, but it is just a re-tab of your post above with capo 4. Have you even tried playing alonmg to the song the way I tabbed it? I don't mean to be holier than thou but the way I tabbed it is correct. It is also easier to play. You just use the D chord shape at the 11th fret.

Tim
Sydney13 - 2004-12-30
Mike Carr sounds about right the others i'm not to sure about.
Thanks for that Mike.
Prokrow - 2005-01-14
I have the DVD and on the DVD Brad Avery who plays that part has the capo on the 9th fret. So it goes something like this.

e |------0-----------0-----------0-|
B |---3-----3-----3-----3-----3----|
G |------------------------0-------|
D |0-----------4-------------------|
A |--------------------------------|
E |--------------------------------|

I don't think that's perfect, but he did use the capo on the 9th fret even though mac had it on the fourth. Let me know what you think.
church-clown40 - 2005-04-25
This is how it should go

Capo 9th
e-----0-------0----------
b-------3-------3-----3--
g---2-------2-----0-2---- 2x
d-0-------4--------------
a------------------------
E------------------------
(relative to capo)
confederategome - 2005-07-31
i emailed tai anderson and he said it was

Intro: (2x)
e-7---9---11---9-7-12---7
B---7---7----7--------7--
gcat1486 - 2005-08-09
how would tai know?
he is a bass player!!!!!
Skifree0813 - 2005-11-21
all the posted intros seem pretty much right, but after listening to it a few times, it sounds life the b is a harmonic(every other note) instead of open. just a thought..
Sydney13 - 2006-01-21
Third Day – It’s Ashame Tab

I personally think it is this but you guys seem to have other ideas but this is mine. :-p
I put a Capo on the 7th fret because my fingers cant stretch from the 7th fret all the way to the 12th fret and so on but if you can do it good on ya…anyway this how I think it goes. J
Moderate Tempo- Just play to the song and you’ll get the idea.

Intro/Outro
e----7-----9------11------9------12------7-----------------------------|
B-------7------7------7-------7-------7--------------------------------|
G----------------------------------------------------------------------|
D----------------------------------------------------------------------|
A----------------------------------------------------------------------|
E----------------------------------------------------------------------|
Sydney13 - 2006-01-21
Tai Anderson's tab above it probably right because he comes from the Band THIRD DAY and he would would have a better idea on what it would even if he is the Bass Player!!!

To add a comment for this tab, please visit the version of this guitar tab on it's home site, Christian Guitar Resources.



© 2005 MickMel - All Right Reserved - Privacy Statement