:: Home > Tabs > S > Sanctus Real > Won't Walk Away

Sanctus Real - Won't Walk Away


This tab has been rated a 5.00 out of 5 for accuracy.
(1 vote)
To rate this tab, please visit the version of this guitar tab on it's home site, Christian Guitar Resources.

Click here for a plain text version of this song (for better printing)




#----------------------------------PLEASE NOTE---------------------------------#
#This file is the author's own work and represents their interpretation of the #
#song. You may only use this file for private study, scholarship, or research. #
#------------------------------------------------------------------------------#


Tune: Low E to High E as follows -
C# G# C# Eb G# C

intro chords 4x
1------------------------------------------------------I
2---4-4-4-4-4-4-4-4--5-5-5-5--7-7-7-7------I
3---4-4-4-4-4-4-4-4--5-5-5-5--7-7-7-7------I
4------------------------------------------------------I
5---4-4-4-4-4-4-4-4--5-5-5-5--7-7-7-7------I
6------------------------------------------------------I

high riff at end of intro 2x
1------------------------------------------------------I
2---16--16--16--16---17--17---19--19-------I
3----16--16--16--16---17--17---19--19------I
4------------------------------------------------------I
5------------------------------------------------------I
6------------------------------------------------------I

Harmonics during the verse -
1----------------------------------------12--------------------I
2--------------------------------12--------12-----12--------I
3-----------7----------------12----12--------12------------I
4------7-----7--7--------12----------------------------------I
5-----7--7----7-----------------------------------------------I
6----7----------------------------------------------------------I

'and I won't walk away, away...'
1------------------------------------------------------I
2------------------------------------------------------I
3------------------------------------------------------I
4---2--2--x--2-x-2-2---2---0-0-x--0-x-0--------I
5---2--2--x--2-x-2-2---2---0-0-x--0-x-0--------I
6---2--2--x--2-x-2-2---2---0-0-x--0-x-0--------I

'and i will follow You wherever you lead...' 2x
1--0--0---0----0----0---0----0-----0-------------I
2--0--0---0----0----0---0----0-----0-------------I
3--5--7---9---10----7---9---12-----5------------I
4--7--9--11---12----9---11--14----7------------I
5--0--0---0---0-----0---0----0-----0--------------I
6-----------------------------------0--------------I

turnaround and pattern for 2nd verse
1---0-0-0-x-0--0-0-0-0------0-0-0-x--0-0-0-0-0--------I
2---0-0-0-x-0--0-0-0-0------0-0-0-x--0-0-0-0-0--------I
3---7-7-5-x-5--7-7-5-5------4-4-2-x--2-4-4-2-2--------I
4---7-7-7-x-7--7-7-7-7---4--4-4-4-x--4-4-4-4-4-------I
5-----------------------------------------------------------------I
6---7-7-7-x-7--7-7-7-7---4--4-4-4-x--4-4-4-4-4-------I

chorus chords 'I won't walk away...'
1---0--0-x-0-x-0-0-0-----0-0-x-0-x-0-0-0------I
2---0--0-x-0-x-0-0-0-----0-0-x-0-x-0-0-0------I
3---0--0-x-0-x-0-0-0-----0-0-x-0-x-0-0-0------I
4---7--7-x-7-x-7-7-7-----0-0-x-0-x-0-0-0------I
5---7--7-x-7-x-7-7-7-----0-0-x-0-x-0-0-0------I
6---7--7-x-7-x-7-7-7-----0-0-x-0-x-0-0-0------I

before lead and outro riff
1------------------------------------------------------I
2------------------------------------------------------I
3------------------------------------------------------I
4---2-2-2--/--4--0----------------------------------I
5---2-2-2--/--4--0----------------------------------I
6---2-2-2--/--4--0----------------------------------I

lead (h=hammer on p= pull off) first part
1-------------------------------------------------------I
2------------------5-p0-------------------------------I
3----------------------------------------------------------I
4--0-h6-h7-p0-------6-p0-4-p0-2-p0---------------------I
5----------------------------------------------2p0------------I
6----------------------------------------------------2------I

second part of lead
1------------------------------------------------------I
2-------------------5-p0-----------------------------I
3------------------------------------------------------I
4---0-h6-h7-p0-------6-p0-4-p0-6p0--7-----I
5------------------------------------------------------I
6------------------------------------------------------I



Comments about this tab

Josephde - 2004-11-24
You could at least give Chris Rohman some credit for this tab instead of copying it straight from the sanctusreal.com forums...
JohnM - 2005-01-03
The harmonics part looks more like:

||---------------------|------------------------|
||---------------------|------------------------|
||-----------<7>-------|------<7>---------------|
||-<7>--<7>------<7>---|-<7>------<7>---<7>-----|
||---------------------|--------------------<7>-|
||---------------------|------------------------|

|---------<12>------------------|---------<12>-----------||
|-------------------------------|------------------------||
|-----<7>-----------------------|-----<7>----------------||
|-<7>----------<7>-----<7>------|-<7>----------<7>-------||
|------------------<7>------<7>-|------------------<7>---||
|-------------------------------|-------------------------||
Adam K - 2005-02-10
Hey dude! You copied this from SanctusReal.com.
Alex_face - 2006-08-16
Definately a 5

To add a comment for this tab, please visit the version of this guitar tab on it's home site, Christian Guitar Resources.



© 2005 MickMel - All Right Reserved - Privacy Statement