:: Home > Tabs > T > Third Day > Gomer's Theme

Third Day - Gomer's Theme


This tab has been rated a 4.00 out of 5 for accuracy.
(1 vote)
To rate this tab, please visit the version of this guitar tab on it's home site, Christian Guitar Resources.

Click here for a plain text version of this song (for better printing)




#----------------------------------PLEASE NOTE---------------------------------#
#This file is the author's own work and represents their interpretation of the #
#song. You may only use this file for private study, scholarship, or research. #
#------------------------------------------------------------------------------#


Gomerís Theme
Third Day
Conspiracy #5
Figured I would tab this song,  Its a little different than the
last tab I seen cause the others are good but still now one takes 
the time to tab out the right kind of tab, down to the last Detail 
kinda thing, So hope you enjoy, it is as correct my ears can hear. 
But I donít do this for myself , I do it for the heavenly father, 
anyway I can make my self useful to him and use the God given 
ablility he gave to help His Body. God Bless  

Intro
E|----------------|----------------|---------------|----------------|
B|-0----0----0----|-0----0----0----|-0----0----0---|-0----0----0----|
G|-1----1----1----|-1----1----1----|-1----1----1---|-2----2----2----|
D|-2----2----2----|-2----2----2----|-0----0----0---|-2--2-2--2-2--2-|
A|-2--2-2--2-2-2--|-2--2-2--2-2-2--|-2--2-2--2-2-2-|-0--0-0--0-0--2-|
E|-0--0-0--0---0--|-0--0-0--0---0--|----0----0---0-|----0---------0-|

E|----------------|----------------|---------------|----------------|
B|----------------|-0----0----0----|-0----0----0---|-0--------------|
G|-1----1----1----|-1----1----1----|-1----1----1---|-2--------------|
D|-2----2----2----|-2----2----2----|-0----0----0---|-2--hold--------|
A|-2--2-2--2-2-2--|-2--2-2--2-2-2--|-2--2-2--2-2-2-|-0--------------|
E|-0--0-0--0---0--|-0--0-0--0---0--|----0----0---0-|----------------|

 Distortion pt. (Acoustic Strums intro chords)
E|----------------|----------------|---------------|----------------|
B|----------------|----------------|---------------|----------------|
G|----------------|----------------|---------------|----------------|
D|-2--------------|----------------|-------0-------|----------------|
A|--2-------------|----------------|-------2-------|----------------|
E|---0------------|----------------|-------0-------|----------------|
   
E|----------------|----------------|-7-------------|---------7---7--|
B|----------------|----------------|-----7--(hold)-|-----------7----|
G|----------------|----------------|---------------|----------------|
D|----------------|----------------|---------------|----------------|
A|---7------------|----------------|---------------|----------------|
E|---0------------|----------------|---------------|----------------|

VERSE								x2
E|----------------|----------------|----------------|----------------|
B|----------------|----------------|----------------|-------2--------|
G|----------------|----------------|-1--------------|-----2----------|
D|-2--------------|----------------|-0--------------|---2------------|
A|-2--------------|----------------|-2--------------|-0--------------|
E|-0--------------|----------------|-0--------------|----------------|

Pre-Chorus
E|----------------|----------------|----------------|----------------|
B|----------------|----------------|----------------|----------------|
G|-5-------5------|-6-------6------|--1-------------|----------------|
D|-6-6-6-6-6-6-6-6|-7-7-7-7-7-7-7-7|--2-------------|----------------|
A|-6-6-6-6-6-6-6-6|-7-7-7-7-7-7-7-7|--2-------------|----------------|
E|-4-4-4-4-4-4-4-4|-5-5-5-5-5-5-5-5|--0-------------|----------------|
 |                                                                   |
E|----------------|----------------|--7-------------|--------7-------|
B|----------------|----------------|--7-------------|---7-------7----|
G|----------------|----------------|--9-------------|-9----9---------|
D|----------------|----------------|----------------|----------------|
A|---7------------|----------------|----------------|----------------|
E|---0------------|----------------|----------------|---------------0|


E|----------------|----------------|----------------|----------------|
B|----------------|----------------|----------------|----------------|
G|-5-------5------|-6-------6------|-4-4-4-4-4-4-4-4|-4-4-4-4-4-4-4-4|
D|-6-6-6-6-6-6-6-6|-7-7-7-7-7-7-7--|-4-4-4-4-4-4-4-4|-4-4-4-4-4-4-4-4|
A|-6-6-6-6-6-6-6-6|-7-7-7-7-7-7-7-7|-2-2-2-2-2-2-2-2|-2-2-2-2-2-2-2-2|
E|-4-4-4-4-4-4-4-4|-5-5-5-5-5-5-5-5|----------------|----------------|
 |                                                                   |
E|----------------|----------------|----------------|----------------|
B|----------------|----------------|---5-4--5-4---5-|4---5-4---5-4---|
G|-5-------5------|-6-------6------|-x----5----5----|-5-----5------5-|
D|-6-6-6-6-6-6-6-6|-7-7-7-7-7-7-7-7|----------------|----------------|
A|-6-6-6-6-6-6-6-6|-7-7-7-7-7-7-7-7|----------------|----------------|
E|-4-4-4-4-4-4-4-4|-5-5-5-5-5-5-5-5|----------------|----------------|


Chorus
E|-0---------------|-----------------|----------------|-----------------|
B|-0---------------|-----------------|----------------|-----------------|
G|-1---------------|-4-4-4-4-4-------|-6-6-6-6-6---4--|-----------------|
D|-2--2-2-2--------|-4-4-4-4-4-----2-|-6-6-6-6-6---4--|-2-2-2-2---------|
A|-2--2-2-2-2-2-2--|-2-2-2-2-2-0-2-0-|-4-4-4-4-4-0-2--|-0-0-0-0---------|
E|-0--0-0-0-0-0-0--|-----------------|----------------|----------0-3b---|

E|-----------------|-----------------|----------------|-----------------|
B|-----------------|-----------------|----------------|-----------------|
G|-----------------|-4-4-4-4-4-4-4-4-|-6-6-6-5-5-5-5-5|-----------------|
D|-2--2-2-2--------|-4-4-4-4-4-4-4-4-|-6-6-6-6-6-6-6-6|-7-7-7-7-7-7-7-7-|
A|-2--2-2-2-2-2-2--|-2-2-2-2-2-2-2-2-|-6-6-6-6-6-6-6-6|-7-7-7-7-7-7-7-7-|
E|-0--0-0-0-0-0-0--|-----------------|---------4-4-4-4|-5-5-5-5-5-5-5-5-|

Verse 2
E|------------------|----------------|----------------|------------------|
B|------------------|----------------|-------------0--|------------------|
G|------------------|----------------|---1-------1-1--|---2---------2--2-|
D|-2---------2---2--|-----------2----|---0-------0-0--|---2---------2--2-|
A|-2---------2---2--|-----------2----|-0-2-------2-2--|-0-0-0--0000-0--0-|
E|-0-0--0000-0---0--|-0---0000--0-0--|-0---0--00---0--|------------------|
   |									 |
E|------------------|----------------|----------------|------------------|
B|----(hold)---~----|---(hold)-~-~---|----------------|------------------|
G|-/9---------------|----------------|---7------------|---6--------------|
D|------------------|----------------|---7------------|---7--------------|
A|------------------|----------------|---5------------|---4--------------|
E|------------------|----------------|---0------------|-0-0--------------|


E|------------------|----------------|----------------|------------------|
B|------------------|----------------|-------------0--|------------------|
G|------------------|----------------|---1-------1-1--|---2---------2--2-|
D|-2---------2---2--|-----------2----|---0-------0-0--|---2---------2--2-|
A|-2---------2---2--|-----------2----|-0-2-------2-2--|-0-0-0--0000-0--0-|
E|-0-0--0000-0---0--|-0---0000--0-0--|-0---0--00---0--|------------------|
   |									 | 
E|------------------|----------------|----------------|------------------|
B|----(hold)---~----|---(hold)-~-~---|---6-7----------|------------------|
G|-/9---------------|----------------|---7----9-------|----6-------------|
D|------------------|----------------|----------------|-------7----------|
A|------------------|----------------|----------------|-4----------------|
E|------------------|----------------|----------------|------------------|

Pre-chorus
Chorus

Interlude
E|------------------|---------5------|----------------|--------4-------|
B|-----------5h6----|---------5------|-------2--------|----------------|
G|------6---------6-|----------------|-----------2----|----------------|
D|--------6---------|-7--------------|--------------4/|-6--------------|
A|-0-4--------------|-7--------------|--------------4/|-6--------------|
E|------------------|-5------------5\|-2------------2/|-4--------------|

E|------------------|---------5------|----------------|----------------|
B|-----------5h6----|---------5------|----------2-----|---------4------|
G|------6---------6-|----------------|-------2----2---|-----------4----|
D|--------6---------|-7--------------|----------------|-4--------------|
A|---4--------------|-7--------------|----------------|-2-----2--------|
E|------------------|-5------------5\|-2--------------|----------------|
   |								       |
E|---4--------------|----------------|----------------|----------------|
B|---5--------------|----------------|----------------|----------------|
G|---6--------------|-2--------------|----------------|----------------|
D|---6--------------|-2--------------|-4--------------|----------------|
A|---4--------------|-0--------------|-4--------------|-2-2-2-2-2-2-2-2|
E|------------------|----------------|-2--------------|----------------|

Continue with B Chord
While adding a couple times (Listen to hear it
E----------------|
B--5-4-----------|
G------5---------|
D--------5-------|
A----------------|
E----------------|

Next part is easy
Chorus x2

Solo
W/Wah pedal
(listen for wah rhythm)
E|---------------|
B|-x-------------|
G|-x-------------|
D|-x-------------|
A|-x--x----------|
E|----------0//--|

E|-------------------------------------------|
B|-------------------------------------------|
G|xx-13h14-x-13/11~--x-14b16r(14)---14p13~---|
D|-------------------------------------------|
A|-------------------------------------------|
E|-------------------------------------------|

E|--------------------------------------|
B|--------------------------------------|
G|--11h13p11ó13/14ó13\11--13b14r(13)~---|
D|--------------------------------------|
A|--------------------------------------|
E|--------------------------------------|

E|--------------------------12~-(PH)----|
B|------------/12~----------------------|
G|-xx-13h14--------xx-13h14-------------|
D|--------------------------------------|
A|--------------------------------------|
E|--------------------------------------|

                   
                   H
E|--xx-14b16-14~---12~--xx17p16------19b21-19~-|
B|------------------------------17-x-----------|
G|---------------------------------------------|
D|---------------------------------------------|
A|---------------------------------------------|
E|---------------------------------------------|
						(Gradual bend)
E|-x17p16---------14h16-16--14-xx12-/14-b16----|
B|--------17/12--------------------------------|
G|---------------------------------------------|
D|---------------------------------------------|
A|---------------------------------------------|
E|---------------------------------------------|


Songs 1997 Renunion Records and New Spring Publishing
written by Third Day



Comments about this tab

To add a comment for this tab, please visit the version of this guitar tab on it's home site, Christian Guitar Resources.



© 2005 MickMel - All Right Reserved - Privacy Statement