:: Home > Tabs > B > By The Tree > Your Arms

By The Tree - Your Arms


This tab has been rated a 5.00 out of 5 for accuracy.
(2 votes)
To rate this tab, please visit the version of this guitar tab on it's home site, Christian Guitar Resources.

Click here for a plain text version of this song (for better printing)




#----------------------------------PLEASE NOTE---------------------------------#
#This file is the author's own work and represents their interpretation of the #
#song. You may only use this file for private study, scholarship, or research. #
#------------------------------------------------------------------------------#


By The Tree-Your Arms
Standard Tuning E-A-D-G-B-E
Capo 1st Fret F-A#-D#-G#-C-F
Chords are just the positions from the capo
Intro
F ----------0-------------------   
C ------------------------------   
G#-------7----7--4--0-----------   
D#-2h4-5--------------4h5-4h5-4- x2  
A#------------------------------ 
F ------------------------------   

-3-2h3----------------------------
------3--3-5--3-------------------
----------------4--0--------------
---------------------4h5-4h5-4----
----------------------------------- x2
----------------------------------

Verse
F ----------0-------------------   
C ------------------------------   
G#-------7----7--4--0-----------   
D#-2h4-5--------------4h5-4h5-4- x4 
A#------------------------------ 
F ------------------------------

Chorus
G D C x2  
Em D C G A
Em D C
Then
-3-2h3----------------------------
------3--3-5--3-------------------
----------------4--0--------------
---------------------4h5-4h5-4----
----------------------------------- x2
----------------------------------

Verse
F ----------0-------------------   
C ------------------------------   
G#-------7----7--4--0-----------   
D#-2h4-5--------------4h5-4h5-4- x3
A#------------------------------ 
F ------------------------------
Then
G D C

Chorus
G D C x2 
Em D C G A

Bridge
C G Em C x2
C G Em C A 
C G Em C x2
C G Em C A 
 
Outro
F ----------0-------------------   
C ------------------------------   
G#-------7----7--4--0-----------   
D#-2h4-5--------------4h5-4h5-4- x2
A#------------------------------ 
F ------------------------------
Then 
C

-3-2h3----------------------------
------3--3-5--3-------------------
----------------4--0--------------
---------------------4h5-4h5-4----
----------------------------------- x2
----------------------------------

End on C

Tabbed by Adam K.



Comments about this tab

B-rad - 2004-05-05
Thanks so much for tabbing this song, I love it!
David wood - 2005-04-06
Can you tab "your beloved" by "by the tree" and can someone tab a good "beautiful one" by "by the tree" thank you

To add a comment for this tab, please visit the version of this guitar tab on it's home site, Christian Guitar Resources.



© 2005 MickMel - All Right Reserved - Privacy Statement