:: Home > Tabs > S > Sanctus Real > Sink Or Swim

Sanctus Real - Sink Or Swim


This tab has been rated a 5.00 out of 5 for accuracy.
(2 votes)
To rate this tab, please visit the version of this guitar tab on it's home site, Christian Guitar Resources.

Click here for a plain text version of this song (for better printing)




#----------------------------------PLEASE NOTE---------------------------------#
#This file is the author's own work and represents their interpretation of the #
#song. You may only use this file for private study, scholarship, or research. #
#------------------------------------------------------------------------------#


Sanctus Real-Sink or Swim
Drop C# Tuning C#-G#-C#-F#-A#-D#
(I'm not putting timing down or how many strokes) 
Intro
F#-7--4--7--9-
C#-7--4--7--9-
G#-5--2--5--7- x2
C#------------

F#---------
C#-9--5--0-
G#-9--5--0- x2
C#-9--5--0-

Verse
F#-11--9--7-----2-2--4--7- x1

F#-----------------------
C#-9--5--0---9--0--5---5-
G#-9--5--0---9--0--5---5-
C#-9--5--0---9--0--5---5-
P.M..................

Chorus
F#----------------
C#-0--5--9--5---5-
G#-0--5--9--5---5-
C#-0--5--9--5---5-
        ......

Post-Chorus
F#-4--5-
C#-4--5-
G#-2--3-
C#------

Verse

Chorus
F#----------------
C#-0--5--9--5---5-
G#-0--5--9--5---5- x2
C#-0--5--9--5---5-
        ......

Bridge
F#-4--5-
C#-4--5-
G#-2--3- x4
C#------

Chorus
F#-------------------------------------------
C#-0--5--9--5---0--5--9--7--5--0--5--9--7--5-
G#-0--5--9--5---0--5--9--7--5--0--5--9--7--5-
C#-0--5--9--5---0--5--9--7--5--0--5--9--7--5-
        ......

End On [C#-0--]
       [G#-0--]
       [C#-0--]

 Tabbed by Adam K



Comments about this tab

sanctusfan14 - 2005-05-03
minor correction. The
Db-0 in the verse and chorus should be up and octave, but still
Ab-0 playing the low Db
Db-0

Gb-7
Db-7
Ab-5
Db-0

To add a comment for this tab, please visit the version of this guitar tab on it's home site, Christian Guitar Resources.



© 2005 MickMel - All Right Reserved - Privacy Statement