:: Home > Tabs > B > By The Tree > Faith That Breathes

By The Tree - Faith That Breathes


This tab has been rated a 3.33 out of 5 for accuracy.
(3 votes)
To rate this tab, please visit the version of this guitar tab on it's home site, Christian Guitar Resources.

Click here for a plain text version of this song (for better printing)




#----------------------------------PLEASE NOTE---------------------------------#
#This file is the author's own work and represents their interpretation of the #
#song. You may only use this file for private study, scholarship, or research. #
#------------------------------------------------------------------------------#


Artist: By The Tree
Song: Faith That Breathes
Album: Root
Words and Music by: Chuck Dennie

This version is more specific than the last one I did. Now I have taken
the time to actually tab it out.

Verse:         
         G#                         E                   B                 C#
E----------------------------------------------------------------------------
B---------------------------------9----------------------4-------------------
G---------------13------------9---------------------4---------------------6--
D---------13--------------9-------------------4----------------------6-------
A----11--------------7-------------------2----------------------4------------
E----------------------------------------------------------------------------


Chorus:
   G#            E             B                  C#              B
E---------------------------------------------------------------------
B---------------------------------------------------------------------
G--------------------------------------4-4-4-4-4-X-X-X-X--6-6-6-6-6-4-
D--6-6-6-6-6-X-X-X-X-------------------4-4-4-4-4-X-X-X-X--6-6-6-6-6-4-
A--6-6-6-6-6-X-X-X-X-2-2-2-2-2-X-X-X-X-2-2-2-2-2-X-X-X-X--4-4-4-4-4-2-
E--4-4-4-4-4-X-X-X-X-0-0-0-0-0-X-X-X-X--------------------------------

Verse 2: Same as Verse 1

Chorus 2: Palm mute the third strum and upstroke the sixth strum to get effect.
E-------------------------------------------------------[--------------
B-------------------------------------------------------[--------------
G----------------------------4-4-4-4-4-4--6-6-6-6-6--4--[-6-6-6-6-6--4-
D--6-6-6-6-6-6---------------4-4-4-4-4-4--6-6-6-6-6--4--[-6-6-6-6-6--4-
A--6-6-6-6-6-6--2-2-2-2-2-2--2-2-2-2-2-2--4-4-4-4-4--2--[-4-4-4-4-4--2-
E--4-4-4-4-4-4--0-0-0-0-0-0-----------------------------[--------------
2nd time play 2x

Bridge/Solo: Guitar 1, palm mute the verse chords but bar chorded. While Guitar
slides down the neck and plays...
     G#               E             B                           C#
E----------------------------------------------------------------------
B----------------------------------------------------------------------
G-------------------------------------4-4-4-4-4-4-4-4--6-6-6-6-6-6-6-6-
D-6-6-6-6-6-6-6-6---------------------4-4-4-4-4-4-4-4--6-6-6-6-6-6-6-6-
A-6-6-6-6-6-6-6-6---2-2-2-2-2-2-2-2---2-2-2-2-2-2-2-2--4-4-4-4-4-4-4-4-
E-4-4-4-4-4-4-4-4---0-0-0-0-0-0-0-0------------------------------------

Guitar 2:
E-------------------------------------------------------------------------7-9-
B-----------------------------------------------------------------/9--7/9-----
G-X/8-8-8-8-8-8-8-8-8-8-8-8-8-8-8-8-8-8-8-8-8-8-8-8-8-8-8-8-8-8-8-------------
D-----------------------------------------------------------------------------
A-----------------------------------------------------------------------------
E-----------------------------------------------------------------------------

You end on G# then when he sings the last word you hit the C# chord to end
the song.

/=Slide
X=muted

This song is so awesome, its a great song to play for worship I play it at my
church and it rocks. Everyone loves the song and now I'm glad to finally
tabbed it. The chords are right, the solo's notes are right put there is
some weird stuff that Charlie's playing towards the end but it's as close as
I could get. Please leave any comments if you have any.



Comments about this tab

tree_hugger14 - 2004-03-04
Hey tahnks 4 putting this song up i love this song
gsusfreak785 - 2005-06-10
It's actually G#minor

To add a comment for this tab, please visit the version of this guitar tab on it's home site, Christian Guitar Resources.



© 2005 MickMel - All Right Reserved - Privacy Statement