:: Home > Tabs > B > By The Tree > Far Away

By The Tree - Far Away


This tab has been rated a 3.00 out of 5 for accuracy.
(3 votes)
To rate this tab, please visit the version of this guitar tab on it's home site, Christian Guitar Resources.

Click here for a plain text version of this song (for better printing)




#----------------------------------PLEASE NOTE---------------------------------#
#This file is the author's own work and represents their interpretation of the #
#song. You may only use this file for private study, scholarship, or research. #
#------------------------------------------------------------------------------#


Artist: By The Tree
Song: Far Away
Album: Root
Words and Music by: Chuck Dennie

I learned this song in like five minutes so I know the chorus is right I
think the verse is pretty close.

Intro: Eb Bb C G#

Verse is palm muted:
Eb                          Bb                G#                Bb
D-10-10-10-10--------------------------------------------------------
A--8---8---8---8---10-10-10-10----6--6--6--6---10-10-10-10-----------
E----------------------8---8---8---8----4--4--4--4----8---8---8---8--

Chorus is the same as the intro

Bridge:
      Eb                         Bb                 C               G#
G-10-X-10-X-10-X-10---------------------------5-X-5-X-5-X-5---------------------
D-10-X-10-X-10-X-10--10-X-10-X-10-X-10--5-X-5-X-5-X-5-6-X-6-X-6-X-6-------------
A--8--X--8--X--8--X-8---10-X-10-X-10-X-10-3-X-3-X-3-X-3-6-X-6-X-6-X-6-----------
E------------------------------8--X--8--X-8-X-8-------------------4-X-4-X-4-X-4-


      Eb             Bb                              C               Bb   G#
G-10-X-10-X-10-X-10-------------------------------5--X--5--X--5--X--5----------
D-10-X-10-X-10-X-10---10-X-10-X-10-X-10--5--X--5--X--5--X--5--10---6-----------
A--8--X--8--X--8--X--8---10-X-10-X-10-X-10--3--X--3--X--3--X--3--10---6--------
E-------------------------------8--X--8--X--8--X--8---------------------8--4---

After the Bridge you play the chorus with a clean sound palm muted then you
play the chorus 1 step higher so it goes like this...

Last ending chorus: F C D Bb

This is a good song.



Comments about this tab

To add a comment for this tab, please visit the version of this guitar tab on it's home site, Christian Guitar Resources.



© 2005 MickMel - All Right Reserved - Privacy Statement