:: Home > Tabs > E > Echo Hollow > Through the Veil

Echo Hollow - Through the Veil


This tab has not yet been rated for accuracy.To rate this tab, please visit the version of this guitar tab on it's home site, Christian Guitar Resources.

Click here for a plain text version of this song (for better printing)




#----------------------------------PLEASE NOTE---------------------------------#
#This file is the author's own work and represents their interpretation of the #
#song. You may only use this file for private study, scholarship, or research. #
#------------------------------------------------------------------------------#


Through the Veil
Echo Hollow

Tabbed by: Zeb Lang

h =3D hammer on, p =3D pull off, b =3D bend, r =3D release 
  

Sovereign are you Lord 
You who sit upon the throne 
Father, Son and Spirit 
Perfect Trinity You are 
  

          Through your word you've created the heavens and the earth 
E--------------------------------------------------------------------------------------- 
B---7--/--9--------7--------7--/--9--------------7--/--9-------------7------------------ 
G---7--/--9--------7--------7--/--9--------------7--/--9-------------7------------------ 
D---7--/--9--------7--------7--/--9--------------7--/--9-------------7-------------2---- 
A---5--/--7--------5--------5--/--7--------------5--/--7-------------5-------------2---- 
E---5--/--7--------5--------5--/--7--------------5--/--7-------------5------\3~~~--0---- 
  

          You command what you will and you grant what you command 
E--------------------------------------------------------------------------------------- 
B---7--/--9--------7--------7--/--9---------------7--/--9--------7---------------------- 
G---7--/--9--------7--------7--/--9---------------7--/--9--------7---------------------- 
D---7--/--9--------7--------7--/--9-------5p4~~~--7--/--9--------7-------------2-------- 
A---5--/--7--------5--------5--/--7--5h7----------5--/--7--------5-------------2-------- 
E---5--/--7--------5--------5--/--7---------------5--/--7--------5------\3~~~--0-------- 
  

   Total dominion, above You no one dwells 
E--------------------------------------------------------------------------------------- 
B---5--------7--------------9-----7--------5^-r5p3-----------9-----7-----7-------------- 
G---5--------7--------------9-----7--------------------------9-----7-----9^--(11)-\----- 
D---5--------7--------2-----7-----5--------------------2-----7-----5-------------------- 
A---3--------5--------2-----7-----5--------------------2-----7-----5-------------------- 
E---3--------5--------0--------------------------------0-------------------------------- 
  

       Master Majestic, You conquered death and hell 
E--------------------------------------------------------------------------------------- 
B---5-----------------7--------------------------------9-------------------------------- 
G---5-----------------7--------------------------------9-------------------------------- 
D---5-----------------7--------------------------------9-------------------------------- 
A---3-----------------5--------------------------------7-------------------------------- 
E---3-----------------5--------------------------------7-------------------------------- 
  

        Incarnate Word, born into the world that you created 
E--------------------------------------------------------------------------------------- 
B------7--/--9-----7-----7--/--9--------7--/--9-----7----------------------------------- 
G------7--/--9-----7-----7--/--9--------7--/--9-----7----------------------------------- 
D------7--/--9-----7-----7--/--9--------7--/--9-----7----------2------------------------ 
A------5--/--7-----5-----5--/--7--------5--/--7-----5----------2------------------------ 
E------5--/--7-----5-----5--/--7--------5--/--7-----5---\3~~~--0------------------------ 
  

            Son of God most high came to earth and became low 
E--------------------------------------------------------------------------------------- 
B---7--/--9-----7-----7--/--9------------------7--/--9--------7------------------------- 
G---7--/--9-----7-----7--/--9------------------7--/--9--------7------------------------- 
D---7--/--9-----7-----7--/--9----------5p4~~~--7--/--9--------7----------2-------------- 
A---5--/--7-----5-----5--/--7-----5h7----------5--/--7--------5----------2-------------- 
E---5--/--7-----5-----5--/--7------------------5--/--7--------5---\3~~~--0-------------- 
  

            A mother made by her own child we marvel at Your awesome plan 
E--------------------------------------------------------------------------------------- 
B---7--/--9--------7--------7--/--9-----------------7--/--9--------7-------------------- 
G---7--/--9--------7--------7--/--9--------9--------7--/--9--------7-------------------- 
D---7--/--9--------7--------7--/--9-----------9-----7--/--9--------7----------2--------- 
A---5--/--7--------5--------5--/--7-----------------5--/--7--------5----------2--------- 
E---5--/--7--------5--------5--/--7-----------------5--/--7--------5---\3~~~--0--------- 
  

Rejected by the builders, Then became He the Cornerstone 
E--------------------------------------------------------------------------------------- 
B---5-----7-----------9-----7-----5^-r5p3-----------9-----7-----7----------------------- 
G---5-----7-----------9-----7-----------------------9-----7-----9^--(11)---------------- 
D---5-----7-----2-----7-----5-----------------2-----7-----5----------------------------- 
A---3-----5-----2-----7-----5-----------------2-----7-----5----------------------------- 
E---3-----5-----0-----------------------------0----------------------------------------- 
  

       Beautiful Savior, the grave couldn't hold You down 
E--------------------------------------------------------------------------------------- 
B---5-----------------7--------------------------------9-------------------------------- 
G---5-----------------7--------------------------------9-------------------------------- 
D---5-----------------7--------------------------------9-------------------------------- 
A---3-----------------5--------------------------------7-------------------------------- 
E---3-----------------5--------------------------------7-------------------------------- 
  

(Chorus) -        Torn now is the veil, and now You call to me, to come to
You 
E--------------------------------------------------------------------------------------- 
B--------------------------------------------------------------------------------------- 
G---------7--/--9----------------------------------------------------------------------- 
D---------x-----x--------7--/--9--------9--/--10--------10--\--7--------5-----2--------- 
A---------5--/--7--------x-----x--------x-----x---------x------x--------x-----2--------- 
E------------------------5--/--7--------7--/--8---------8---\--5--------3~~~--0--------- 
  

    Your body torn for me, Your blood was shed for me, and now I know the
Way 
                                                         is through the veil 
E--------------------------------------------------------------------------------------- 
B---------------------------------------------------------------------------5----------- 
G---9-----------------------------------------------------------------------4----------- 
D---x--------------7--/--9-----------------9--/--10--------10--/--12--------2----------- 
A---7--------------x-----x-----------------x-----x---------x------x---------2----------- 
E------------------5--/--7-----------------7--/--8---------8---/--10--------0----------- 
  

   Lead 
E------------------------12------------------------------------------------------------- 
B------------------------12--12h13---------------------------------15--12--15^--15-^~~~- 
G------------13^-r13~~~-------------12~~~---------14^-r14p12---------------------------- 
D----/14~~~--------------------------------12h14--------------14------------------------ 
A--------------------------------------------------------------------------------------- 
E--------------------------------------------------------------------------------------- 
  
  

E--------------------15^--15--12--12-----12------12------------------------------------- 
B-------(17)-r15p12--------------------------15----------------------------------------- 
G----------------------------------------------------12-----14^--(16)-r14~~~--14p12----- 
D--------------------------------------------------------------------------------------- 
A--------------------------------------------------------------------------------------- 
E--------------------------------------------------------------------------------------- 
  
  

E--------------------------------------------------------------------------------------- 
B--------------------------------------------------------------------------------------- 
G---14p12--14^-------------------------------------------------------------------------- 
D--------------------------------------------------------------------------------------- 
A--------------------------------------------------------------------------------------- 
E-------------/-/-/-\-\-\--------------------------------------------------------------- 
  
  

E--------------------------------------------------------------------------------------- 
B------------9-----7--------5^-r5p3-----------9-----7-----5^-r5^-r5--5^\---------------- 
G------------9-----7--------------------------9-----7----------------------------------- 
D------2-----7-----5--------------------2-----7-----5-------------------------2--------- 
A------2-----7-----5--------------------2-----7-----5-------------------------2--------- 
E------0--------------------------------0-------------------------------------0--------- 
  
  

E--------------------------------------------------------------------------------------- 
B---9-----7--------5^-r5p3-----------9-----7--------7----------------------------------- 
G---9-----7--------------------------9-----7--------9^--(11)---------------------------- 
D---7-----5--------------------2-----7-----5-------------------------------------------- 
A---7-----5--------------------2-----7-----5-------------------------------------------- 
E------------------------------0-------------------------------------------------------- 
  

    The debt of a sinner,  can only be paid with blood, holy wrath and
anger, 
E--------------------------------------------------------------------------------------- 
B--5--------------------7---------------------------5-------------------------7--------- 
G--5--------------------7---------------------------5-------------------------7--------- 
D--5--------------------7---------------------------5-------------------------7--------- 
A--3--------------------5---------------------------3-------------------------5--------- 
E--3--------------------5---------------------------3-------------------------5--------- 

Forgiven through Christ alone 

(Guitar - Repeat Chorus 2x) 
Torn now is the veil, and now You call to me, 
To come to You 
Your body torn for me, Your blood was shed for me 
and now the only Way is through 
Torn now is the veil, glory to glory, He's transforming me 
All honor and praise unto the Holy One, Hallelujah 
  

Blues explosion! (SRV, is that you?)



Comments about this tab

To add a comment for this tab, please visit the version of this guitar tab on it's home site, Christian Guitar Resources.



© 2005 MickMel - All Right Reserved - Privacy Statement