:: Home > Tabs > Num > 11th Hour Space Monkeys > Jojo's Funky Adventure

11th Hour Space Monkeys - Jojo's Funky Adventure


This tab has not yet been rated for accuracy.To rate this tab, please visit the version of this guitar tab on it's home site, Christian Guitar Resources.

Click here for a plain text version of this song (for better printing)




#----------------------------------PLEASE NOTE---------------------------------#
#This file is the author's own work and represents their interpretation of the #
#song. You may only use this file for private study, scholarship, or research. #
#------------------------------------------------------------------------------#


Jojo's Funky Adventure
11th Hour Space Monkeys
1997 (c) Starr Records

off their newest Album
you have to catch these guys in concert, they're stinkin awesome


--------------------------
Intro                  x2                            x3

-3----------0-------------0---3---0------------0--------------------
-3------3-------3-----3-------3------0------0-----0-----------------
-0---0-------------0----------0----------0-----------0--------------
-1----------------------------1-------------------------------------
-2----------------------------2-------------------------------------
--------------------------------------------------------------------

Verse 1    b?(33012x)

B?     Bopen  Copen  Dopen  hit 12the fret harmonics

  

Chorus
G      Gdim   D      Ddim   E9+13sus?     


Verse 2    b?(33012x)

B?     Bopen  Copen  Dopen  hit 12the fret harmonics



back to Chorus

Bridge

Bb    C      D                        


Chorus

---------------------------------------------------------------------
if you've got any tour information or any silly questions
email Jacob Smith   prs@fidnet.com
      Jared Corgan  corgan@primary.net
      Willie        srennier@mail.win.org



Comments about this tab

To add a comment for this tab, please visit the version of this guitar tab on it's home site, Christian Guitar Resources.



© 2005 MickMel - All Right Reserved - Privacy Statement