:: Home > Tabs > C > Camp, Jeremy > Take My Life

Jeremy Camp - Take My Life


This tab has been rated a 3.29 out of 5 for accuracy.
(7 votes)
To rate this tab, please visit the version of this guitar tab on it's home site, Christian Guitar Resources.

Click here for a plain text version of this song (for better printing)




#----------------------------------PLEASE NOTE---------------------------------#
#This file is the author's own work and represents their interpretation of the #
#song. You may only use this file for private study, scholarship, or research. #
#------------------------------------------------------------------------------#


Take My Life
Jeremy Camp

Intro: Cm A# G# A# Cm A# G#
Verse: Cm A# G#
Chorus:Cm A# G# A#
       Cm A# G# G G# A# (2x)

Bridge:F G G# Cm A# G# (2x)

Chorus:(2x)
Intro (2x)

Verse Lead:
E------------------
B------------------
G-8---8---8h10-8---
D--10--10----------
A------------------
E------------------

I did the best I could to get the song note by note just listening to the
song several times. Just mix the lead with someone else playing in the
rhythm end & it'll come together jus great. I'm sure this is it, God bless



Comments about this tab

alienyouthron - 2004-01-25
i thought this tab was good. It jus takes a bit to get an earful but once u got it together & play with th song according to th timing, bam! there it goes
billy_brown - 2004-06-05
the lick is

e------------------------------------------------------------------------
b------------------------------------------------------------------------
g----------------------------------------------------------10------------
d------13--10--13--10--13--10------10--13--10--13--10--13------13--------
a------------------------------13----------------------------------------
e------------------------------------------------------------------------
12Stones23 - 2005-01-02
I think the tab is a little different. It's easier to play the main riff in the Cm pentatonic scale. Like such:

e------------------------------------------------------------------
B------------------------------------------------------------------
G---8----------8----------8----------------------------------------
D--------10---------10---------10-------8-------10-----------------
A------------------------------------------------------------------
E------------------------------------------------------------------

The second time through, you play this.

e-----------------------------------------------------------------
B-----------------------------------------------------------------
G---8---------8---------8-------10-------8------------------------
D--------10--------10---------------------------10----------------
A-----------------------------------------------------------------
E-----------------------------------------------------------------

Hope this helps! God bless!
Xtreme Kuk - 2005-08-24
gj on lick coment but can u give me the tabs for the chorus?? i dun no the power chords

To add a comment for this tab, please visit the version of this guitar tab on it's home site, Christian Guitar Resources.



© 2005 MickMel - All Right Reserved - Privacy Statement