:: Home > Tabs > J > Justifide > Face to Face

Justifide - Face to Face


This tab has been rated a 4.00 out of 5 for accuracy.
(1 vote)
To rate this tab, please visit the version of this guitar tab on it's home site, Christian Guitar Resources.

Click here for a plain text version of this song (for better printing)




#----------------------------------PLEASE NOTE---------------------------------#
#This file is the author's own work and represents their interpretation of the #
#song. You may only use this file for private study, scholarship, or research. #
#------------------------------------------------------------------------------#


Song: Face to Face
Artist: Justifide
Album: The Beauty of the Unknown
Tabbed by: Joel C.

Drop D

Intro
Play a bend on low D, 2nd fret, then...
D 9-------------2
A -10-9---(8x)--2
D --------------2

D 0h2-0-5-7       2--0
A 0h2-0-5-7  (3x) 2--0
D 0h2-0-5-7       2--0

Lead Guitar During Intro

D 9999-12-12--9999-----9999-12b--9---7777-555
A ----------------10-9-------------5---------
D -------------------------------------------

Verse
D 0h2--0h2--0h2--5--7--0h2--0h2--0h2--5--0
A 0h2--0h2--0h2--5--7--0h2--0h2--0h2--5--0
D 0h2--0h2--0h2--5--7--0h2--0h2--0h2--5--0

Chorus
D 10--0-2--5--
A 10--0-2--5--   (4x)
D 10--0-2--5--


Verse
Chorus
Bridge Part 1 (Play 2x through)

D 0-10-0-12-0        7-5-9-0
A 0-10-0-12-0   (3x) 7-5-9-0
D 0-10-0-12-0        7-5-9-0

Bridge Part 2
D 9----------------9----14----9----------------9-------7-9
A -10-9-7-9-7-9b-7--10-9-14-7--10-9-7-9-7-9b-7--10-9---7-9
D -----------------------------------------------------7-9

Chorus 2x
Ends on some kind of E but I couldn't figure it out.  Definitely not one of 
the best jobs I've done tabbing,but it should be close enough to be able to
play with, (not exactly an easy song to tab out!)  Questions or comments
can go to joellaw44@hotmail.com



Comments about this tab

To add a comment for this tab, please visit the version of this guitar tab on it's home site, Christian Guitar Resources.



© 2005 MickMel - All Right Reserved - Privacy Statement