:: Home > Tabs > T > Third Day > Sing A Song

Third Day - Sing A Song


This tab has been rated a 4.73 out of 5 for accuracy.
(11 votes)
To rate this tab, please visit the version of this guitar tab on it's home site, Christian Guitar Resources.

Click here for a plain text version of this song (for better printing)




#----------------------------------PLEASE NOTE---------------------------------#
#This file is the author's own work and represents their interpretation of the #
#song. You may only use this file for private study, scholarship, or research. #
#------------------------------------------------------------------------------#


Sing a Song
Third Day
Offerings II: All I Have to Give
Copyright 2003 Consuming Fire Music/ASCAP

Transcribed by scheller (sonnyschell@hotmail.com)
I've tabbed out the whole song including the solo.
This is pretty thorough, so I've tried to keep it concise.  
A little note on how I've notated this:

When chords are played over a tab staff, the chords will be 
above a slash "/" for the number of times there are slashes.  

When you see this together, it means that both parts are played together.
Gtr I  (chord name or riff #)
Gtr II (chord name or riff #)


CHORDS:
A5		577xxx	E5		022xxx
D5 		x577xx	F#5		244xxx
A 		x02220	F#m 		244222
E		022100	D 		xx0232
Asus4 		x02230	A(type 2) 	x02225
Asus4(type 2) 	x02235	A5VII 		x 0 7 9 10 x
A5open 		x02255	E5VII		x799xx

VERSE 1
 Gtr I distortion
             A5
|---------|-------|
|---------|-------|
|---------|-------|
|---------|--7----|
|---------|--7----|
|---------|--5----|

   Gtr I                 A5VII                 3x
||---------------------|-----------------------||
||o--------------------|-10-------------------o||
||---------------------|--9--------------------||
||---------------------|--7--------------------||
||o--------------------|--0-------------------o||
||---------------------|-----------------------||
|
|  Gtr II  (riff 1)                            3x
||---------------------|-----------------------||
||o-----0-0h2--3p2-----|------0-0h2--2b3r(2)--o||
||--2-2------------4p2-|--2-2------------------||
||---------------------|-----------------------||
||o--------------------|----------------------o||
||---------------------|-----------------------||


CHORUS
D5     A5VII  
E5VII  A5VII
D5     F#m    
E5VII  D5

Gtr I   A5VII
Gtr II (riff 1)

VERSE 2
  Gtr I                                       x3
||---------------------|----------------------||
||o--------------------|-10------------------o||
||---------------------|--9-------------------||
||---------------------|--7-------------------||
||o--------------------|--0------------------o||
||---------------------|----------------------||
|
| Gtr II (clean)                              x3
||--5--------5-5-5-5-5-|--5--------5-5-5-5-5--||
||o-2--------3-3-3-3-3-|--2--------3-3-3-3-3-o||
||--2--------2-2-2-2-2-|--2--------2-2-2-2-2--||
||--2------------2-2---|--2------------2-2----||
||o--------------------|---------------------o||
||---------------------|----------------------||

|-------------------|----------------------|
|-------------------|-10---10--------------|
|-------------------|--9----9--------------|
|-------------------|--7----7--------------|
|-------------------|--0----0--------------|
|-------------------|----------------------|
|
|-5--5--5-5-5-5-5-5-|--5-5--5--5-5-5-5-5-5-|
|-2--2--2-2-2-2-2-2-|--2-2--2--2-2-2-2-2-2-|
|-2--2--2-2-2-2-2-2-|--2-2--2--2-2-2-2-2-2-|
|-2--2------2---2---|--2-2--2------2---2---|
|-------------------|----------------------|
|-------------------|----------------------|

CHORUS 2
  Gtr II (plays chords below where there are slashes "/")
  D5         A5
  Gtr I
|----------|-----5-----|
|----------|-----5-----|
|-7--------|-----2-----|
|-7--------|-2---------|
|-5--------|-0---------|
|----------|-----------|

  E5         A5
  /          /
|----------|----------------------|
|----------|----------------------|
|-9--------|----------------------|
|-9--------|-7-----------------7--|
|-7--------|-7-------------7h9----|
|----------|-5---------7h9--------|

  D5         F#5         E5   D5
  /          /           /    /
|----------|-2--2------|-----------|
|----------|-2--2------|-----------|
|-7--------|-2--2------|-9----7----|
|-7--------|-4--4------|-9----7----|
|-5--------|-----------|-7----5----|
|----------|-----------|-----------|

GUITAR SOLO
  Gtr II plays riff 1
  Gtr I
|------------------------|--------------------------|
|------------------------|--------------------------|
|-/12---12------12-------|-12---12-----12--11\------|
|-/14---14------14-------|-14---14-----14--12\------|
|------------------------|--------------------------|
|------------------------|--------------------------|

|---------------------------------------|
|-----------------------13-13-13-15-13--|
|-/12-12-12-/14---14-14-14-14-14--------|
|-/14-14-14-/16---16-16-----------------|
|---------------------------------------|
|---------------------------------------|
|
|---------------------------------------|
|-------------0-0h2--------3p2----------|
|---2--2---------------------------4p2--|
|---------------------------------------|
|---------------------------------------|
|---------------------------------------|

  Gtr II (this is fast)
|-0h3h5-5-5-5p3-0-10p8----0h3h5-5-5-5p3-0------5--------|
|----------------------10-----------------/5h8----------|
|------------------------------------------------7p5----|
|----------------------------------------------------7\-|
|-------------------------------------------------------|
|-------------------------------------------------------|

REST TWO BARS
  Gtr II plays riff 1
  Gtr I
|--------------------|-------------------------|
|--------------------|-----10--------------x-x-|
|--------------------|-9----9--------------x-x-|
|--------------------|-7----7--------------x-x-|
|--------------------|-0----0--------------x-x-|
|--------------------|-------------------------|

CHORUS 3
  Gtr II
  D5          A5          E5         A5
   /          /           /          /
  Gtr I
|-----------|----5------|----------|------|
|-10--------|----5------|----------|------|
|--7--------|----2------|-1--------|-2----|
|--0--------|-----------|-2--------|-2----|
|-----------|-0---------|-2--------|-0----|
|-----------|-----------|-0--------|------|

  D5         F#5           E5   D5     A5
  /          /             /    /      /
|----------|-----2-------|-----------|----------------|
|-3--------|-----2-------|------3----|----0h2-0h2-----|
|-2--------|-----2-------|------2----|-2--------------|
|-0--------|-----4-------|-2----0----|-2--------------|
|----------|-------------|-2---------|-0--------------|
|----------|-2-----------|-0---------|----------------|

  D5                    A5
  /                     /
|---------------------|----------------|
|-3---------------x-x-|----------------|
|-2------2-4p2----x-x-|-2--------2-----|
|-0--2h4-------4--x-x-|-2----2h4---4p2-|
|---------------------|-0--------------|
|---------------------|----------------|

  E5                  A5
  /                   /
|-------------------|------------------|
|-------------------|------------------|
|-9--9--9-9-9-9-9-9-|-2----------------|
|-9--9--9-9-9-9-9-9-|-2--------2-4p2---|
|-7--7--7-7-7-7-7-7-|-0----2h4-------4-|
|-------------------|------------------|

  D5             F#5           E5     D5
  /              /             /      /
|--------------|-2--2--2--2--|----------------|
|-3------------|-2--2--2--2--|-0-0-0--3-3-3-3-|
|-2-----4p2----|-2--2--2--2--|-1-1-1--2-2-2-2-|
|-0------------|-4--4--4--4--|-2-2-2--0-0-0-0-|
|--------------|-------------|----------------|
|--------------|-------------|----------------|


Gtr II plays riff 1


OUTRO

Rest 2 bars

Gtr I
F#m  F#m
E    D
A    A

  Gtr II
  A5
  / /  /   / /  /   / /     / /  /   / /  /   / /
  Gtr I
|-5--5-5-5-5--5-5-5-5-5-5-|-5--5-5-5-5--5-5-5-5-5-5--|
|-2--2-2-2-2--2-2-2-2-2-2-|-2--2-2-2-2--2-2-2-2-2-2--|
|-2--2-2-2-2--2-2-2-2-2-2-|-2--2-2-2-2--2-2-2-2-2-2--|
|-2----2---2----2---2-2---|-2----2---2----2---2-2----|
|-------------------------|--------------------------|
|-------------------------|--------------------------|

  F#5
  / /  /   / /  /   / /     / /  /   / /  /   / /
|-2--2-2-2-2--2-2-2-2-2-2-|-2--2-2-2-2--2-2-2-2-2-2--|
|-2--2-2-2-2--2-2-2-2-2-2-|-2--2-2-2-2--2-2-2-2-2-2--|
|-2--2-2-2-2--2-2-2-2-2-2-|-2--2-2-2-2--2-2-2-2-2-2--|
|-4----4---4----4---4-4---|-4----4---4----4---4-4----|
|-------------------------|--------------------------|
|-------------------------|--------------------------|

  E5                        D5
  / /  /   / /  /   / /     / /  /   / /  /   / /
|-0--0-0-0-0--0-0-0-0-0-0-|-2--2-2-2-2--2-2-2-2-2-2--|
|-0--0-0-0-0--0-0-0-0-0-0-|-3--3-3-3-3--3-3-3-3-3-3--|
|-1--1-1-1-1--1-1-1-1-1-1-|-2--2-2-2-2--2-2-2-2-2-2--|
|-2----2---2----2---2-2---|-0----0---0----0---0-0----|
|-------------------------|--------------------------|
|-------------------------|--------------------------|


  Gtr II plays riff 1
  Gtr I
|-5---5-5-5---5-5-5-5-5---5-5-|-5---5-5-5---5-5-5--5-----5--5-5-|
|-2---2-2-2---2-2-2-2-2---2-2-|-2---2-2-2---2-2-2--2-----2--2-2-|
|-2---2-2-2---2-2-2-2-2---2-2-|-2---2-2-2---2-2-2--2-----2--2-2-|
|-2-----2-----2---2---2---2---|-2-----2-----2---2--------2--2---|
|-----------------------------|---------------------------------|
|-----------------------------|---------------------------------|


  Gtr II plays riff 1
  Gtr III
  A5
  / / /   / //   /   /    /  / /   / //        /    /
  Gtr I (riff 2)
|-5-------5----------5-|-----------5-----------5-----|
|-5---5------5---------|-----5--------5-----------5--|
|----------------------|-----------------------------|
|----------------------|-----------------------------|
|----------------------|-----------------------------|
|----------------------|-----------------------------|


  Gtr I plays riff 2
  Gtr II plays riff 1
  Gtr III plays  F#5


  Gtr I plays riff 2
  Gtr III 
  E5                 D5
  / / /   / // //    /  / /   / // /   /
  Gtr II
|-----------------|----------------------|
|-----0-0h2-------|-------0-0h2----------|
|-2-2--------4--2-|--2--2--------4-----2-|
|-----------------|----------------------|
|-----------------|----------------------|
|-----------------|----------------------|


  A5
  /  / / / /   / / /      /  / / / / / /   /
|--5----5---5p0-0-0-0-0-|--5----5---5---5-----|
|-----5---5-------------|-----5---5---5-----5-|
|-----------------------|---------------------|
|-----------------------|---------------------|
|-----------------------|---------------------|
|-----------------------|---------------------|
|
|-----------------------|---------------------|
|-----3---2-----5---3---|-----2---------------|
|-----------------------|---------4---2-----2-|
|-----------------------|---------------2h4---|
|-----------------------|---------------------|
|-----------------------|---------------------|


  Gtrs II, III
  A5
  / // / // //    /  / / / / / / /
  Gtr I
|-5----5-----5-|-------5---5---5---|
|-5--5----5----|-----5---5---5---5-|
|--------------|-------------------|
|--------------|-------------------|
|--------------|-------------------|
|--------------|-------------------|

  F#5
  / // / // //    /  / / / / / / /
|-5----5-----5-|-------5---5---5---|
|-5--5----5----|-----5---5---5---5-|
|--------------|-------------------|
|--------------|-------------------|
|--------------|-------------------|
|--------------|-------------------|

  E5             D5
  / // / // //    /  / / / / / / /
|-5----5-----5-|-------5---5---5---|
|-5--5----5----|-----5---5---5---5-|
|--------------|-------------------|
|--------------|-------------------|
|--------------|-------------------|
|--------------|-------------------|

  A5 (fade out)
  / / / / / / / /   / / / / / / / /
|-----------------|-----------------*|
|-----------------|-----------------*|
|-2-2-2-2-2-2-2-2-|-2-2-2-2-2-2-2-2-*|
|-2-2-2-2-2-2-2-2-|-2-2-2-2-2-2-2-2-*|
|-0-0-0-0-0-0-0-0-|-0-0-0-0-0-0-0-0-*|
|-----------------|-----------------*|


Generated using Power Tab Editor by Brad Larsen
http://www.power-tab.net



Comments about this tab

thewoolleyman - 2004-05-01
Good Job. I have one correction - this is what I hear on Verse II:

| Gtr II (clean)
||--5--------5-5-5-5-5-| etc, with the correct rhythm...
||o-5--------5-5-5-5-5-|
||--6--------6-6-6-6-6-|
||--7--------7-7-7-7-6-|
||o--------------------|
||---------------------|
thewoolleyman - 2004-05-01
Oops ignore the last correction on Verse II, I was looking at Guiter II instead of Guitar I. The chord on Guitar I is correct, but he slides up to it, and strums it more, with some 16th notes:

Gtr I / / / / / / / / / x3
||---------------------|----------------------||
||o--------------------|/10------------------o||
||---------------------|-/9-------------------||
||---------------------|-/7-------------------||
||o--------------------|-/0------------------o||
||---------------------|----------------------||
gcat1486 - 2004-08-27
could you please state were thye ending of this song is, you know the "...holy, holy, holy.."
I think that is the best part of the whole song.
gcat1486 - 2004-09-28
i tyhink the A5 is really an A2
scheller - 2004-10-20
here's a video of them explaining how they play it. I need to update my tab to match this. http://boss.streamos.com/wmedia/emicmg/divisional/14/video/wma/300/77.wvx
gcat1486 - 2004-10-22
great movie
mmggppmgp - 2004-12-23
very good tab
Psyko - 2005-03-19
Hey man, awesome tab! I don't know exactly how the solo goes, but on the fast part I have one correction. If you look on the Live Wire DVD, Brad Avery uses a capo in the 5th fret. Instead of --0h3h5-- on the high 'e' string, for example, he playes the same thing on the 'b' string relative to the capo. This should keep you from having to go up to the 10th fret in less than a second, if you can figure out the rest, because you'll already be up there. Hope this helps!

<>< Psyko
guitarplayer09 - 2005-03-28
Nice job. Thank you for posting this. I really didn't want to have to sit down and find the chords/tabs for this song like i have to do for most other songs i want to play.

To add a comment for this tab, please visit the version of this guitar tab on it's home site, Christian Guitar Resources.



© 2005 MickMel - All Right Reserved - Privacy Statement