:: Home > Tabs > S > Sanctus Real > Say It Loud

Sanctus Real - Say It Loud


This tab has been rated a 4.40 out of 5 for accuracy.
(5 votes)
To rate this tab, please visit the version of this guitar tab on it's home site, Christian Guitar Resources.

Click here for a plain text version of this song (for better printing)




#----------------------------------PLEASE NOTE---------------------------------#
#This file is the author's own work and represents their interpretation of the #
#song. You may only use this file for private study, scholarship, or research. #
#------------------------------------------------------------------------------#


artist:sanctus real
song:say it loud
Tabbed by:rockinout0801@sbcglobal.net

this song is awesome, this is one of my favorite songs to play, and its
really easy. i have both the lead and back up through the whole song.
1/2 step down.

intro:guitar 1 and 2
e----------------------
B----------------------
G-7--------------------.....guitar 2 gives some feed back while guitar 1 plays
D-7-let ring-----------     the next part
A-5--------------------
E----------------------

intro 2: guitar 1               both guitars
e----------------------------|---------------------------
B----------------------------|---------------------------
G-7777-7777-7777-5555-7777---|---------------------------
D-7777-7777-7777-5555-7777---|--4--4--4--4/55-------------
A-5555-xxxx-5555-3333-5555---|---------------------------
E------7777------------------|33-33-33-33----------------
                              .. .. .. ..
for the verse you just play the intro 2...

pre-chorus...lead
e------------------------------------------------------------------
B------------------------------------------------------------------
G-------------------77777/1111111111/77----------------------------
D-77777777-99999999-77777/1111111111/77----------------------------
A-77777777-99999999-55555/ 9 9 9 9 9/55----------------------------
E-55555555-77777777------------------------------------------------
  ........ ........

pre-chorus..back-up
e------------------------------------------------------------------
B------------------------------------------------------------------
G------------------------------------------------------------------
D-77777777-99999999-55555-55-55------------------------------------
A-77777777-99999999-55555-55-55------------------------------------
E-55555555-77777777-33333-22-33------------------------------------
  ........ ........

end pre chorus with both guitars:
e---------------------------------------------------
B---------------------------------------------------
G---------------------------------------------------
D-555555555555/7777---------------------------------
A-555555555555/7777---------------------------------
E-333333333333/5555---------------------------------

chorus...lead
e----------------------------------------------------
B----------------------------------------------------
G-777777---------------------------------------------
D-777777-777777-999999-55-77-------------------------
A-555555-777777-999999-55-77-------------------------
E--------555555-777777-33-55-------------------------

chorus..back-up
D-12-12-11-11-12-12

little part in chorus(my favorite part!)
e----------------------------------------------
B--3-----3--7--5--3---------------------------- 3
G---0-----0-9B-7B-6B--------------------------- 6B=1/2 bend
D-4--4-4h5-------------------------------------
A----------------------------------------------
E----------------------------------------------

end chorus with:
e-----------------------------------------------
B-----------------------------------------------
G-7---------------------------------------------
D-7-7-5555-55-55--------------------------------
A-5-7-5555-55-55--------------------------------
E---5-3333-22-33--------------------------------

play verse and chorus then after the chorus play this:
lead and back up(back up are the power chords)
e-----------------------------------------------------
B----8------8------8---8---8--------------------------
G----11B----11B----11B-11B-11B------------------------
D-55-----55-----55-----5~-----------------------------
A-55-----55-----55-----5~-let ring--------------------
E-33-----33-----33-----3~-----------------------------

SOLO!!
e---------------------------------------------------
B---------------------------------------------------
G--6h7p6--------------------------------------------
D-----------7-4-2h4-2-0-0h2-2-2p0-0-0h2/4-4/7-------
A---------------------------------------------------
E---------------------------------------------------

back up during solo:
PM A5, G5, F5, G5

bridge: back-up
Pm A5 and G5

*lead just gives some feed back then both guitars play:
B5,E,G5,A5

*then both guitars play the intro 2 but stop on G5 and do a slide.

*both guitars play the back up pre chorus

wierd chorus:
e------------------------------------
B------------------------------------
G------------------------------------
D---12-12-9--7--4--5--4--7-----------
A---12-12-9--7--4--5--4--7-----------
E---10-9--7--5--2--3--2--5-----------

then you play the regular chorus and at the very end C5 is the off chord. 

end on D5

any question email me rockinout0801@sbcglobal.net



Comments about this tab

gregorykicks - 2004-05-25
Why did you tab it 1/2 step down??? Looks ok if you transpose it.
21Frets - 2004-11-28
Yeah, the first chord is G--6-- but yeah, nice job.
D--6--
A--4--
E-----
JohnM - 2004-12-06
Uh... yeah. Stolen from Sanctus Real's message board, where it was actually tabbed by their guitar player.
JohnM - 2004-12-24
(And it is a nearly perfect tab, as it came from their guitar player..)
BreakComa7 - 2005-01-14
c'mon guys, havent you heard of Copyrights, but anyways, if you dont know that they are in the forums, and you know this website, then leave em alone, c'mon dude, dont be so harsh on them.
jamforchrist123 - 2005-03-01
It Is A Half Step Down. If You Watch The Video Of It You Can See They End The Song On

G:-5-
D:-5-
A:-7-
E:---
jamforchrist123 - 2005-03-01
Sorry, I Got Confused. They End It On:

G--7--
D--7--
A--5--
E-----
sanctusfan14 - 2005-05-03
nah, this is different than the one on sanctusreal.com
sanctusfan14 - 2005-05-03
and jamforchrist is right, it is a half step down(as most of their songs are)
SRguitarfrk444 - 2006-01-31
hmm johnM please never talk again cuz this is defiantly not fro mthere website...i messed up and put a C instead of a G in the intro tabs so bud if your ganna talk know what your talkin about thanks...and yeah sanctus real plays all of there song either a half step down, full step down, or in the real weird tuning that you can find on there website...so lets all thank johnM for tryign to know what hes talking about...thanks

To add a comment for this tab, please visit the version of this guitar tab on it's home site, Christian Guitar Resources.



© 2005 MickMel - All Right Reserved - Privacy Statement