:: Home > Tabs > J > Justifide > Someone To Blame

Justifide - Someone To Blame


This tab has been rated a 4.75 out of 5 for accuracy.
(4 votes)
To rate this tab, please visit the version of this guitar tab on it's home site, Christian Guitar Resources.

Click here for a plain text version of this song (for better printing)




#----------------------------------PLEASE NOTE---------------------------------#
#This file is the author's own work and represents their interpretation of the #
#song. You may only use this file for private study, scholarship, or research. #
#------------------------------------------------------------------------------#


Song:Someone To Blame
Artist:Justifide
Album:The beauty Of the Unknown
Tabbed by Chris
E-mail: tutito07@yahoo.com

Drop D TUNING!


Intro A   0:00  0:09
  Gtr. 1                      Gtr. 2
E---------------]---9p8--8----
B---6vvvvvvvvvv-]------------- 
G---------------]-------------
D---------------]-------------
A---------------]-------------
D---------------]-------------


Intro B / Verse 1

Gtr. 1  0:10  1:03                      Gtr. 2       0:18  1:03
E------------------------------]------4--8----------4----8-----
B-----------------------4------]---6-------9-----5--------9----
G-------------------------5----]------------9--------------9---
D-------3--5-3-------3------3--]-------------------------------
A-----3--------3--\4---4-------]-------------------------------
D---3--------------------------]-------------------------------

Gtr. 3   0:45  1:03
A-----------------4444---11111--
D--33333---66666----------------
Pm ************************


Heavy part   
G--------------------------101010--6666------------------------8888---6666---
D-4--3-3--4--3-3--4--3-3---x-x-x---xxxx--4--3-3--4-3-3--4-3-3--xxxx---xxxx---
A-4--3-3--4--3-3--4--3-3---8-8-8---4444--4--3-3--4-3-3--4-3-3--6666---4444---
D-4--3-3--4--3-3--4--3-3-----------------4--3-3--4-3-3--4-3-3----------------

G--------------------------101010--6666--------------------------------------
D-4--3-3--4--3-3--4--3-3---x-x-x---xxxx--4--3-3--4-3-3--4-3-3----1-----3-----
A-4--3-3--4--3-3--4--3-3---8-8-8---4444--4--3-3--4-3-3--4-3-3----1-----3-----
D-4--3-3--4--3-3--4--3-3-----------------4--3-3--4-3-3--4-3-3----1-----3-----


Verse 2

Gtr. 1
D----------------6666---3333---  
A--3333---66666--4444---1111---
D--3333---66666----------------
Pm*************************

Gtr. 2
E----------------------------
B-----------------4----------   Im not sure
G-----------------0----5-----    about this 
D--33---66--------3----3-----
A--33---66----4---4----4-----
D--33---66-------------------


Heavy part    2x
G--------------------------101010--6666------------------------8888---6666--
D-4--3-3--4--3-3--4--3-3---x-x-x---xxxx--4--3-3--4-3-3--4-3-3--xxxx---xxxx-- 
A-4--3-3--4--3-3--4--3-3---8-8-8---4444--4--3-3--4-3-3--4-3-3--6666---4444-- 
D-4--3-3--4--3-3--4--3-3-----------------4--3-3--4-3-3--4-3-3---------------

Chorus
G--------------6666--999---------------6666---3333---
D---333---666--6666--999---333---666---6666---3333---
A---333---666--4444--777---333---666---4444---1111---
D---333---666--------------333---666-----------------

G--------------6666--999---------6666---3333--666-----
D---333---666--6666--999---333---6666---3333--666-----
A---333---666--4444--777---333---4444---1111--444-----
D---333---666--------------333------------------------------


Gtr. 1                                            
D--3-3-3-3---3-3-3-3---3-3-3-3--
A--3-3-3-3---3-3-3-3---3-3-3-3--
D--3-3-3-3---3-3-3-3---3-3-3-3--
Pm*****************************

Gtr. 2                               Gtr. 3
E------------------]----8---7h8-7h8-7h8----  Im no sure on this
B------------------]-----------------------
G--10h1-0h10h1---]-----------------------
D------------------]-----------------------

Gtr. 1
G--------------666--888-----------66666----------8888----
D---3-3--6-6---666--888---4--3-3--xxxxx--4--3-3--xxxx----
A---3-3--6-6---444--666---4--3-3--44444--4--3-3--6666----
D---3-3--6-6--------------4--3-3---------4--3-3----------


G-----------333--666----------66666----------8888---------66666--
D-3-3--6-6--333--666--4--3-3--xxxxx--4--3-3--xxxx--4-3-3--xxxxx--
A-3-3--6-6--111--444--4--3-3--44444--4--3-3--6666--4-3-3--44444--
D-3-3--6-6------------4--3-3---------4--3-3--------4-3-3---------

G--888888888---
D--xxxxxxxxx---
A--666666666---
D--------------

Gtr. 2
E--------------------------------------------
B--666---999---------------------------------
G--xxx---xxx---6666--8888----5b-rb---5b-rb---
D--333---666---xxxx--xxxx--------------------
A--------------4444--6666--------------------
D--------------------------------------------

E----------------------------------------------------------------
B--666---999---111111--141414------------------------------------
G--xxx---xxx---x--x-x---xxxxx----5b-rb--5b-rb--5b-rb--88888vvvv--
D--333---666---8--8-8---11111------------------------------------
A----------------------------------------------------------------
D----------------------------------------------------------------


Chorus
G--------------6666--999---------------6666---3333---
D---333---666--6666--999---333---666---6666---3333---
A---333---666--4444--777---333---666---4444---1111---
D---333---666--------------333---666----------------------

G--------------6666--999---------6666---3333--666-----
D---333---666--6666--999---333---6666---3333--666--3--
A---333---666--4444--777---333---4444---1111--444--3--
D---333---666--------------333---------------------3--

Ending

E-------------------------------
B------------------------4------
G--------------------------5----   3  5x
D-------3--5-3-------3-------3--
A-----3--------3--\4---4--------
D---3---------------------------

E-----8-------8---5*--   *= harmonic
B--9----9---9---------  5x 
G----------9----------

\ = Slide up 
v = vibrato
b = bend
rb = release bend
pm = palm mute
p = pull
h = hammer

Well that's it. This tab is like 70% right.If you have any corrections
or questions e-mail me. God Bless ;-)



Comments about this tab

To add a comment for this tab, please visit the version of this guitar tab on it's home site, Christian Guitar Resources.



© 2005 MickMel - All Right Reserved - Privacy Statement