:: Home > Tabs > J > Justifide > As It Feels Good

Justifide - As It Feels Good


This tab has been rated a 5.00 out of 5 for accuracy.
(2 votes)
To rate this tab, please visit the version of this guitar tab on it's home site, Christian Guitar Resources.

Click here for a plain text version of this song (for better printing)




#----------------------------------PLEASE NOTE---------------------------------#
#This file is the author's own work and represents their interpretation of the #
#song. You may only use this file for private study, scholarship, or research. #
#------------------------------------------------------------------------------#


Song:As It Feels Good
Artist:Justifide
Album:The Beauty Of The Unknown
Tabbed by:Chris
E-mail: tutito07@yahoo.com

Drop D TUNING!

There are parts that the strum pattern is not Shown

Intro / Verse 1
E----------------------------
B----------------------------
G--(0)-----------------------   4x
D---5----4-----4------5------  (0)=optional
A---5----0-----4------5------
D--------0-----4------5------


G------]--------------------------------------------------
D--5--7]--0--0-2-0-2-0--0--0-2-0-2-0---4-5-4-5-4-4-5-4-7--    2x
A--5--7]--0--0-2-0-2-0--0--0-2-0-2-0---4------------------
D--5--7]--0--0-2-0-2-0--0--0-2-0-2-0---4------------------


Verse 2     4x
G--------------------------------------------------- you have to play
D----0--0-2-0-2-0--0--0-2-0-2-0---4-5-4-5-4-4-5-4-7-  the chord and the picking
A----0--0-2-0-2-0--0--0-2-0-2-0---4----------------- on d at the same time. 
D----0--0-2-0-2-0--0--0-2-0-2-0---4-----------------  
Pm       *******************


Chorus
G------------11-------------------
D--5--7--0---x--9-9-9-9--5-5-5-5--  4x 
A--5--7--0---9--9-9-9-9--5-5-5-5-- 
D--5--7--0------9-9-9-9--5-5-5-5--

Pre verse
G--7----7----------7-------------------
D--7------7--5--7----5-4-5-4--5-4--5-7-


Verse 3 4x  same as verse 2

Chorus
G------------11-------------------
D--5--7--0---x--9-9-9-9--5-5-5-5--   3x 
A--5--7--0---9--9-9-9-9--5-5-5-5-- 
D--5--7--0------9-9-9-9--5-5-5-5--

G------------11----------------------
D--5--7--0---x---9-9-9--11-11-11--0--
A--5--7--0---9---9-9-9--11-11-11--0--
D--5--7--0-------9-9-9--11-11-11--0-

Bridge
D-----------------------------------------
A--10-10-10-10--9-9-9-9-------------------  2x
D------------------------4-4-4-4--5-5-5-5-

D--12-12-12-12---11-11-11-11----------------------   1x with Palm mute
A--10-10-10-10---9---9--9--9----4-4-4-4--5-5-5-5--   
D-------------------------------4-4-4-4--5-5-5-5--   1x  without pm
Pm**************************************

G----------4-4-4---6-6-6-------
D--4-4-4---4-4-4---6-6-6-------
A--4-4-4---2-2-2---4-4-4-------
D--4-4-4-----------------------

Ending      4x
G--777--6666--7777---6666---999-------------------------------
D--777--6666--7777---6666---999---555--444---555--444---777---
A--555--4444--5555---4444---777---555--444---555--444---777---
D---------------------------------555--444---555--444---777---

G--777--6666--7777---6666---999--111111--999--111111--777--999------
D--777--6666--7777---6666---999--111111--999--111111--777--999------
A--555--4444--5555---4444---777---9-9-9--777---9-9-9--555--777------
D-------------------------------------------------------------------

Cool song and a non stop action I have to say.If you have any correction or 
Quiestion e-mail me. God Bless ;-)



Comments about this tab

To add a comment for this tab, please visit the version of this guitar tab on it's home site, Christian Guitar Resources.



© 2005 MickMel - All Right Reserved - Privacy Statement