:: Home > Tabs > C > Camp, Jeremy > I Still Believe

Jeremy Camp - I Still Believe


This tab has been rated a 4.46 out of 5 for accuracy.
(13 votes)
To rate this tab, please visit the version of this guitar tab on it's home site, Christian Guitar Resources.

Click here for a plain text version of this song (for better printing)




#----------------------------------PLEASE NOTE---------------------------------#
#This file is the author's own work and represents their interpretation of the #
#song. You may only use this file for private study, scholarship, or research. #
#------------------------------------------------------------------------------#


Jeremy Camp
I Still Believe

Intro/Verses (Capo 1)
                                                                           
E||-------------------------|----------------------------|---------------||
B||-------------------------|------------------3---------|--------3------||
G||----------7--------------|--7-------------------2-----|------------2--||
D||-------7------7-------7--|------7--------0------------|-----0---------||
A||--5--------------4-------|----------------------------|---------------||
E||-------------------------|---------0h-2------------2h-|--3------------||

Pre-Chorus/Chorus
     D#5                 D#7M/D              G                 
E||-------------------|-------------------|--3----------------|
B||-------------------|-------------------|--0----------------|
G||--8----------------|--8----------------|--0----------------|
D||--8----------------|--8----------------|--0----------------|
A||--6----------------|--5----------------|--2----------------|
E||-------------------|-------------------|--3----------------|


  G                  
--3----------------||
--0----------------||
--0----------------||
--0----------------||
--2----------------||
--3----------------||


Bridge
                                                                          
E||------------------------|----------------------|----------------------|
B||------------------------|----------------------|----------------------|
G||------------------------|----------------------|----------------------|
D||------------10----10----|------------8----8----|------------6----6----|
A||--6----6----------------|--5----5--------------|--3----3--------------|
E||------------------------|----------------------|----------------------|


                               
----------------------||
----------------------||
----------------------||
------------8----8----||
--5----5--------------||
----------------------||

ummm...that's basically it....I didn't do the best job making this one,
but that's because no one else had a tab of this song and this song is
absolutly awesome!  So here is the acurate, but ruff-draft of this song.
Hope you can figure it out,

Peace out,

John



Comments about this tab

+miCa+ - 2006-04-09
Thanks for tabbing the song...

To add a comment for this tab, please visit the version of this guitar tab on it's home site, Christian Guitar Resources.



© 2005 MickMel - All Right Reserved - Privacy Statement